E-Chords
Do As Infinity

Boukensha Tachi(Chords)

Do As Infinity

roll up this ad to continue

Key: F
F             Eb     D       Eb 
Yuragu kagerou kakoku na tabi  
D        Eb            F 
Michinori wa tooki kedo  

        D 
Ato ni tsuzuke 

Eb 
Tatta hitotsu dake  
Bb 
Ai wo mune ni daki  
C               F     D 
Boku wa ima tabidatte yuku  
Eb 
new frontier tadoritsuku  
Bb 
Mayoi tsuzuketeta  
C       D           Eb 
Yoru ni owari wo tsuge 
E|------------------------------------------| 
B|--3------5-------2-------0----------------| 
G|------------------------------------------| 
D|--3------5-------3-------0----------------| 
A|------------------------------------------| 
E|------------------------------------------| 

Hokorashiku tsuki susumu beki basho e  
Oozora wo mainagara  
Sakebu michishirube 

E|------------------------------------------| 
B|--3------5-------2-------0----------------| 
G|------------------------------------------| 
D|--3------5-------3-------0----------------| 
A|------------------------------------------| 
E|------------------------------------------| 
Kawaku ame uruosu megumi wa itsu Furisosogu neppa kara Ubai kakimawasu F Eb D Eb Kimagure de wa iki tsukenai D Eb Omoi tsuki nado F D Makari tooru koto naku Eb Tatoe kuchihatete Bb Subete nakushite mo C F D Kitto kuyami wa shinai Eb new frontier matteiro Bb Itsuka kono ato ni C D Eb Michi wa dekiru darou
Solo 

E|------------------------------------------| 
B|------------------------------------------| 
G|------------------------------------------| 
D|--------------------1-3-------------------| 
A|-------------------1----------------------| 
E|-2-2-1-2-1-2-2---1------------------------|  

E|------------------------------------------| 
B|------------------------------------------| 
G|------------------------------------------| 
D|--------------------1-3-------------------| 
A|-------------------1----------------------| 
E|-2-2-1-2-1-2-2---1------------------------|  

E|------------------------------------------| 
B|------------------------------------------|  
G|------------------------------------------| 
D|----------------------3-------------------| 
A|-1-1-0-1-0-1-1-0-1--1---------------------|  
E|------------------------------------------| 

E|------------------------------------------| 
B|------------------------------------------|  
G|------------------------------------------| 
D|----------------------3--4----------------| 
A|-1-1-0-1-0-1-1-0-1--1---------------------|  
E|------------------------------------------| 
Eb Tatta hitotsu dake Bb Ai wo mune ni daki C F D Boku wa ima tabidatte yuku Eb new frontier tadoritsuku Bb Mayoi tsuzuketeta C D Eb Yoru ni owari wo tsuge Eb Tatoe kuchihatete Bb Subete nakushite mo C F D Kitto kuyami wa shinai Eb new frontier matteiro Bb Itsuka kono ato ni C D Eb Michi wa dekiru darou
E|------------------------------------------| 
B|--3------5-------2-------0----------------| 
G|------------------------------------------| 
D|--3------5-------3-------0----------------| 
A|------------------------------------------| 
E|------------------------------------------|
share this page

See Also: