E-Chords
Distrito 09

Amor É Para Amar(Chords)

Distrito 09

roll up this ad to continue

Key: Bm
Intro: Bm  G  D  A 

 
E|-----------------|-----------3-------|----------------5--| 
A|---------0---2---|--------0----------|------5------------| 
D|--2h4h2----------|--2h4h2------------|--2s4------4s2-----| 
G|-----------------|-------------------|-------------------| 
B|-----------------|-------------------|-------------------| 
E|-----------------|-------------------|-------------------| 
Bm G Sabe eu me entreguei D A essa paixão A Bm Há como eu queria ter teu coração G Quem sabe um dia D Eu possa sonhar A Viajar nessa ilusão Bm E você me amar G Sabe eu não consigo D Tenho que falar A Sobre esse tal amor Refrão:
 
E|-----------------| 
A|---------0---2---| 
D|--2h4h2----------| 
G|-----------------| 
B|-----------------| 
E|-----------------| 
Bm Amor é para amar G Eu tenho que entregar D A Render meu coração a ti Bm Não posso me calar G Eu tenho que falar D A Dizer de uma só vez Bm Que amor é para amar
share this page

See Also: