E-Chords
Dionysia

Pyrite Promises(Chords)

Dionysia

Key: Em
Intro:   

E --------------------------------------------------------------------- 
B --------------------------------------------------------------------- 
G -------------------0h2p0-----------------0h2-2/4\2-0----------------- 
D -0h2-2-0-2--2-0-----------2-2-0-----0h2--------------------0-----0--- 
A ----------------2----------------2-----------------------2-----0----- 
E -------------------------------------------------------3-----2-----0- 

E ----------------------------------------------------------------- 
B ----------------------------------------------------------------- 
G -------------------0h2p0-----------------0h2-2/4----------------- 
D -0h2-2-0-2--2-0-----------2-2-0-----0h2----------------0-----0--- 
A ----------------2----------------2-------------------2-----0----- 
E ---------------------------------------------------3-----2-----0- 
Verse: Em C A7 Ooooh, listen to the singers tap G A7 There is sad dreams hanging about it Em7 C A7 All for the gain of the wallet of the fat man G A7 I don't want to be a bad man Em7 C 'Cause I'll stand with my pride in my pocket A7 G A7 Em7 But I won't rely it for them to knock it down sl. sl. Em7 C Em7 F/G G/A Ooooh, listen to the singers tap
C G But, forty days and forty nights A7 Em7 'Til I'll get to where I'm going C G A7 A hundred stairs a million miles C G A But I won't trade the silver plate Em For some pyrite promise C G If it ain't real A7 It ain't worth my sound, no way to worth mine
E --------------------------------------------------------------------- 
B --------------------------------------------------------------------- 
G -------------------0h2p0-----------------0h2-2/4\2-0----------------- 
D -0h2-2-0-2--2-0-----------2-2-0-----0h2--------------------0-----0--- 
A ----------------2----------------2-----------------------2-----0----- 
E -------------------------------------------------------3-----2-----0- 

E ----------------------------------------------------------------- 
B ----------------------------------------------------------------- 
G -------------------0h2p0-----------------0h2-2/4----------------- 
D -0h2-2-0-2--2-0-----------2-2-0-----0h2----------------0-----0--- 
A ----------------2----------------2-------------------2-----0----- 
E ---------------------------------------------------3-----2-----0- 
Verse: Em C A G Em To the royalty coming oooh, oooh A7 Perhaps I'm just a number Em A7 But even as a number Em G With a value you won't discover A7 Em C A I'm not sold by your royalty at all sl sl Em7 F/G G/A No, No
C G Forty days and forty nights A7 Em7 'Til I'll get to where I'm going C G A A hundred stands a million miles C G A But I won't trade the silver plate Em For some pyrite promise C G If it ain't real A7 It ain't worth my sound, no way to worth mine
Instrumental E Em A E Em A Em7 A7 Em7 A7 It ain't worth my time Verse: C G Ooooh, forty days and forty nights A Em7 'Til I'll get to where I'm going C G A7 A hundred stands a million miles C G A But I won't trade the silver plate Em7 For some pyrite promise C G If it ain't real A7 Em7 It ain't worth my sound, ain't worth my time

roll up this ad to continue

share this page

See Also: