E-Chords
Diez 80

6 meses(Chords)

Diez 80

Key: D
Intro: 
e|-2-2-2-2-x-2-2-3-2-x-2-2-2-2-x-2-2-2-2-x-| 
b|-3-3-3-3-x-3-3-3-3-x-2-2-2-2-x-2-2-2-2-x-| 
g|-2-2-2-2-x-2-2-2-2-x-3-3-3-3-x-3-3-3-3-x-| 
d|-----------------------------------------| 
a|-----------------------------------------| 
e|-----------------------------------------| 
 
e|-3-3-3-3-x-3-3-3-3-x-5-5-5-5-x-5-5-5-5-x-| 
b|-3-3-3-3-x-3-3-3-3-x-5-5-5-5-x-5-5-5-5-x-| 
g|-4-4-4-4-x-4-4-4-4-x-6-6-6-6-x-6-6-6-6-x-| 
d|-----------------------------------------| X3 
a|-----------------------------------------| 
e|-----------------------------------------| 
Verse: D F# G Mi cama se mato ya no me quiere ver A se fue y dejo una nota buscate una mujer D F# G creo que se cabreo ya no me quiere ver A A lo mejor porque creia que era una mujer
Pre-Chorus (con dist.): 
e|-------------------------| 
b|-------------------------| 
g|-------------------------| 
d|-7-----------------------| X2 
a|-5---7-(9)-7-5---9-(5)-7-| 
e|-----5-(7)-5-3---7-(3)-5-|
D5 A5 B5 Ya son seis puercos meses de pura abstinencia, A5 G5 estoy sicosiado empieza mi demencia F#5 G5 A5 cansado de tanto esperar, ya ni mi mano me quiere hablar G5 F#5 G5 A5 y lo único que puedo hacer
Gritar Hey!! (toca el pre-Chorus X 4) Hey hey hey Ok, esa es la estructura básica de la cancion (termina en D5) Comentarios, correcciones, insultos, amenazas de muerte, bienvenidos: [email protected] www.guerrerosdecarton.9f.com Tabbed by: Rob 'guerrero de carton' Ferrín

roll up this ad to continue

share this page

See Also: