E-Chords
Die Lokalmatadore

Fotze(Chords)

Die Lokalmatadore

roll up this ad to continue

Key: E
Intro Riff 
Guitar 1 
E|-12-------------------------|-12-------------------------| 
B|----12-14-12----------14-12-|----12-14-12----------------| 
G|-------------13-14-14-------|-------------13-14-14-13-11-| 
D|----------------------------|----------------------------| 
A|----------------------------|----------------------------| 
E|----------------------------|----------------------------| 
Guitar 2 E5 B5 A5 B5 E5 B5 A5 B5 verse 1 E5 B5 A5 B5 Wat ham' Frauen zwischen den Beine? Fotze, Fotze E5 B5 A5 B5 Wat bleibt nachts nicht lang alleine? Fotze, Fotze Refrain E5 B5 A5 B5 Fotze, Fotze, Fotze, Fotze E5 B5 A5 B5 Fotze, Fotze, Fotze, Fotze verse 2 E5 B5 A5 B5 Woran tut man gerne naschen? Fotze, Fotze E5 B5 A5 B5 Aber lieber nach dem Waschen! Fotze, Fotze Refrain E5 B5 A5 B5 Fotze, Fotze, Fotze, Fotze E5 B5 A5 B5 Fotze, Fotze, Fotze, Fotze Intro Riff Guitar 1
E|-12-------------------------|-12-------------------------| 
B|----12-14-12----------14-12-|----12-14-12----------------| 
G|-------------13-14-14-------|-------------13-14-14-13-11-| 
D|----------------------------|----------------------------| 
A|----------------------------|----------------------------| 
E|----------------------------|----------------------------| 
Guitar 2 E5 B5 A5 B5 E5 B5 A5 B5 Solo Guitar 2 E5 B5 A5 B5 E5 B5 A5 B5 verse 3 E5 B5 A5 B5 Welches Wort man stets vermeide? Fotze, Fotze E5 B5 A5 B5 Wozu sagt die Bravo Scheide? Fotze, Fotze Refrain E5 B5 A5 B5 Fotze, Fotze, Fotze, Fotze E5 B5 A5 B5 Fotze, Fotze, Fotze, Fotze
share this page

See Also: