E-Chords
Devil Sold His Soul

An Ocean Of Lights (Acoustic)(Chords)

Devil Sold His Soul

roll up this ad to continue

Key: Am
Intro x2 
  

    C     	C         C          Em  
d---x-------x---------0----------0--------|  
A---1-------3---------1----------0--------|  
F---0-------0---------0----------0--------|  
C---2-------2---------2----------2--------|  
G---3-------3---------3----------2--------|  
D---x-------x---------x----------0--------|  
												  
    C     	C         C          Em     Em2  
d---x-------x---------0----------0-------0---|  
A---1-------3---------1----------0-------0---|  
F---0-------0---------0----------0-------0---|  
C---2-------2---------2----------2-------0---|  
G---3-------3---------3----------2-------2---|  
D---x-------x---------x----------0-------0---|  
Am G Em F Into depths, into depths that I had never before Am G Em F thought to have been a part of us. Am G Em F Under bright lights things never quite look the same, Am C Em G the cracks widen through the whole thing. Intro x2
  

    C     	C         C          Em  
d---x-------x---------0----------0--------|  
A---1-------3---------1----------0--------|  
F---0-------0---------0----------0--------|  
C---2-------2---------2----------2--------|  
G---3-------3---------3----------2--------|  
D---x-------x---------x----------0--------|  
												  
    C     	C         C          Em     Em2  
d---x-------x---------0----------0-------0---|  
A---1-------3---------1----------0-------0---|  
F---0-------0---------0----------0-------0---|  
C---2-------2---------2----------2-------0---|  
G---3-------3---------3----------2-------2---|  
D---x-------x---------x----------0-------0---|  
Am G Em F Into depths, into depths that I had never before Am G Em F Dm thought to have been a part of us. Am G Em F Under bright lights things never quite look the same, Am C Em G the cracks widen through the whole thing. F Am F Am G F I stop waiting for an answer, we're all lost. Am C F As rain crushes my face, we're all lost. Am G F The waves crash down around us, we're all lost. Am F C G This is a death, not my choice. Am Em F C G With the death of an ocean, will you pray for direction, for direction? Am Em F C G And the moment is fading, our hearts will never feel so heavy. Am F C G With the death of an ocean, will you pray for direction, for direction? Am F C G And the moment is fading, our hearts will never feel so heavy. Am F C G x2
share this page

See Also: