E-Chords
Dent May

I'll Be Stoned For Christmas(Chords)

Dent May

roll up this ad to continue

Key: G
Intro 

  G 
e|-0----2------------------|0-----------2------------| 
B|-----------------------0-|-------------------------| 
G|-------------------------|-------------------------| 
D|-------------------------|-------------------------| 
A|-------------------------|-------------------------| 
E|-------------------------|-------------------------| 

  D 
e|-0----2------------------|0-----------2------------| 
B|-----------------------0-|-------------------------| 
G|-------------------------|-------------------------| 
D|-------------------------|-------------------------| 
A|-------------------------|-------------------------| 
E|-------------------------|-------------------------| 
verse 1 G I can't wait to go out on Christmas night D And see all my old high-school friends G I just love my hometown in holiday lights D It's so good to see how you've been Bm We load up your daddy's car E7 And we drive to the party and we're gonna go hard A7 So fill my cup to the top A7 Light me up, 'til I'm high
D E I'll be stoned for Christmas this year A D I'll be stoned for Christmas F#m I'm sorry mama
verse 2 G D G I have opened all my presents, sweaters and slacks D So hit me up and tell me what you got G I've been chilling with my parents, they're driving me mad D So I'm tryina get lifted with you now Bm We broke my cousin's stash and E7 The wall with euphoria we're having a blast A7 So fill my cup to the top A7 Light me up, 'til I'm high
D E I'll be stoned for Christmas this year A D I'll be stoned for Christmas F#m I'm sorry papa
Bridge Bm E7 Bm Got an angel on my tree top E7 And a devil in my mind Bm Have a smoke and pour a big shot E7 'Tis the season to be high A7 So fill my cup to top A7 Light me up, 'til I'm high Outro D E I'll be stoned for Christmas this year A D I'll be stoned for Christmas D E I'll be stoned for Christmas A D I'll be stoned for Christmas D E I'll be stoned for Christmas A D I'll be stoned for Christmas I'm sorry mama
share this page

See Also: