E-Chords
Dennis Lloyd

Wild West(Chords)

Dennis Lloyd

Key: G
Refrão 

Gm 
What if you feel just like 
Cm 
(Feel it like, feel it like me, feel it like,â??feelâ??it like me,â??yeah) 
Gm 
What if you feel just like 
Cm 
(Feelâ??it like, feel it like me, feel it like, feel it like me, yeah) 
  
Gm 
Nobody knows how it feels to be like me, yeah 
Cm 
Nobody, girl, yeah, nobody, girl 
Gm 
Nobody knows how it feels to be like me, yeah 
Cm 
Nobody, girl, yeah, nobody, girl 
   
Primeira Parte 

                     Gm 
'Cause I feel like I'm losing my mind 
  
And I'm losing control but you know that I love that 
                   Cm 
And I feel like I'm ready to give and I'm ready to love 
  
And you know that you want that 
                   Gm 
And I gave you my word and I showed you my world 
  
But you don't understand that I love it 
                   Cm 
Every minute you tried is a minute you lied 
                                           D 
And the minute you hide that you fucked him, baby  
  
Refrão 

Gm 
What if you feel just like 
Cm 
Feel it like, feel it like me, feel it like, feel it like me, yeah 
Gm 
What if you feel just like 
Cm 
Feel it like, feel it like me, feel it like, feel it like me, yeah 
  
Gm 
Nobody knows how it feels to be like me, yeah 
Cm 
Nobody, girl, yeah, nobody, girl 
Gm 
Nobody knows how it feels to be like me, yeah 
Cm 
Nobody, girl, yeah, nobody, girl 
  
Segunda Parte 

                     Gm 
'Cause I feel like I'm losing my mind 
  
And I'm losing control but you know that I love that 
                   Cm 
And I feel like I'm ready to give and I'm ready to love 
  
And you know that you want that 
                   Gm 
And I gave you my word and I showed you my world 
  
But you don't understand that I love it 
                   Cm 
Every minute you tried is a minute you lied 
                                           D 
And the minute you hide that you fucked him, baby 
   
Refrão 

Gm 
What if you feel just like 
Cm 
Feel it like, feel it like me, feel it like, feel it like me, yeah 
Gm 
What if you feel just like 
Cm 
Feel it like, feel it like me, feel it like, feel it like me, yeah  

E|---------8-8-8------10--10--8---------------15--13--11--13--11--10----------------------------| 
B|--8h11----------11-------------11--8~----8--------------------------13---11--13/15--11--13~---| 
G|----------------------------------------------------------------------------------------------| 
D|----------------------------------------------------------------------------------------------| 
A|----------------------------------------------------------------------------------------------| 
E|----------------------------------------------------------------------------------------------|
E|---------------------10-10~-10p8---------15-13-11-15-13-11-10-11-10------------------10--10--8------------| 
B|-8h11-11/13-13-13-11-------------11p8~-8-----------------------------13--11--13--11-------------11-8-6-8~-| 
G|----------------------------------------------------------------------------------------------------------| 
D|----------------------------------------------------------------------------------------------------------| 
A|----------------------------------------------------------------------------------------------------------| 
E|----------------------------------------------------------------------------------------------------------|
Refrão Gm What if you feel just like Cm Feel it like, feel it like me, feel it like, feel it like me, yeah Gm What if you feel just like Cm Feel it like, feel it like me, feel it like, feel it like me, yeah

roll up this ad to continue

share this page

See Also: