E-Chords
Deliranza

Superluna(Chords)

Deliranza

Key: D
INTRO 
E|------------------------------| 
B|------------------------------| 
G|--------5-3-3-3-3.5.3---------| (x4) 
D|----5-5-5-3---------.5.3------| 
A|----5-5-----------------------| 
E|------------------------------| 


D 
Me sabes a primera vez 
E|------------------------------| 
B|------------------------------| 
G|--------5-3-3-3-3.5.3---------| (x2) 
D|----5-5-5-3---------.5.3------| 
A|----5-5-----------------------| 
E|------------------------------| 


D 
Como si fueras un seísmo 
E|------------------------------| 
B|------------------------------| 
G|--------5-3-3-3-3.5.3---------| (x2) 
D|----5-5-5-3---------.5.3------| 
A|----5-5-----------------------| 
E|------------------------------| 
C D Que has producido en mí G C Al bailar con tu magnetismo C D G A quemarropa fuimos a invocar G7 C7 D7 Los sábados de darnos la buena vida G7 C7 D7 Vistiéndonos de fuego y gasolina G7 C7 D7 Mi reino por un poco de tu locura G7 F7 Las luces de neón D7 Bajo la Superluna
E|------------------------------| 
B|------------------------------| 
G|--------5-3-3-3-3.5.3---------| (x4) 
D|----5-5-5-3---------.5.3------| 
A|----5-5-----------------------| 
E|------------------------------| 


D 
Aquí hay dragones, dulce hogar 
E|------------------------------| 
B|------------------------------| 
G|--------5-3-3-3-3.5.3---------| (x2) 
D|----5-5-5-3---------.5.3------| 
A|----5-5-----------------------| 
E|------------------------------| 


D 
Chute de quitar la tontería 
E|------------------------------| 
B|------------------------------| 
G|--------5-3-3-3-3.5.3---------| (x2) 
D|----5-5-5-3---------.5.3------| 
A|----5-5-----------------------| 
E|------------------------------| 
C D No necesito un plan G C Contigo es una bala perdida C D G A medianoche fuimos a invocar G7 C7 D7 Los sábados de darnos la buena vida G7 C7 D7 Vistiéndonos de fuego y gasolina G7 C7 D7 Mi reino por un poco de tu locura G7 F7 Las luces de neón D7 Bajo la Superluna G / C / D F7 D7 Las luces de neón G / C / D

roll up this ad to continue

share this page

See Also: