E-Chords
Delft

If You Only(Chords)

Delft

roll up this ad to continue

Key: Em
Intro E5  A5  B9/A 

Tab - Intro 

Parte 1 de 6 

 E5 
E|------------------------------------------| 
B|------------------------------------------| 
G|------------0-------------0---------------| 
D|------------------2-----------------------| 
A|------2--------------2--------------------| 
E|--0---------------------------------------| 

Parte 2 de 6 

 A5 
E|------------------------------------------| 
B|-----------------------------0------------| 
G|------------------------2-----------------| 
D|--------2----------2----------------------| 
A|----2---------0---------------------------| 
E|------------------------------------------| 

Parte 3 de 6 

E|------------------------------------------| 
B|------------------------------------------| 
G|--------------------0---------------------| 
D|-----2-------------------2----------------| 
A|----------0-------------------------------| 
E|------------------------------------------| 

Parte 4 de 6 

E|------------------------------------------| 
B|------------------------------------------| 
G|--------2/4-----4/2-----------------------| 
D|--------2/4-----4/2-----------------------| 
A|------------------------------------------| 
E|------------------------------------------| 

Parte 5 de 6 

E|------------------------------------------| 
B|------------------------------------------| 
G|-------2p0-------0-----2-----0------------| 
D|-------2p0-------0-----2-----0------------| 
A|------------------------------------------| 
E|------------------------------------------| 

Parte 6 de 6 

E|------------------------------------------| 
B|------------------------------------------| 
G|------------------------------------------| 
D|-----2-----0----2-------------------------| 
A|-----2-----0----2-------------------------| 
E|-----0-----0----0-------------------------| 
E5 A5 I really tought E5 A5 E5 A5 That you would like to stay with me E5 A5 Step by step E5 A5 B9/A I fell in your lies now I can't leave Em A5 If you only, knew what I'm felling B5 Em Then you'd change your mind about it now A5 If you only, knew what you're doing B5 C5 Then you would never do this to me again D5 E5 My lo______ve
Riff 2 

Parte 1 de 2 

E|------------------------------------------| 
B|------------------------------------------| 
G|------------------------------------------| 
D|-----2-----0----2-------------------------| 
A|-----2-----0----2-------------------------| 
E|-----0-----0----0-------------------------| 

Parte 2 de 2 

E|------------------------------------------| 
B|------------------------------------------| 
G|------------------------------------------| 
D|-----------------5--7---5-----------------| 
A|-----5----7-----------------5---5---------| 
E|------------------------------------------| 

Solo 

Parte 1 de 4 

E|------------------------------------------| 
B|-----5(8x)-----7(8x)-------8(8x)----------| 
G|------------------------------------------| 
D|------------------------------------------| 
A|------------------------------------------| 
E|------------------------------------------| 

Parte 2 de 4 

E|------------------------------------------| 
B|--8/12(4x)----12/17(4x)----17p15----------| 
G|------------------------------------------| 
D|------------------------------------------| 
A|------------------------------------------| 
E|------------------------------------------| 

Parte 3 de 4 

E|------------------------------------------| 
B|15----12---12--10---10/12-----------------| 
G|------------------------------------------| 
D|------------------------------------------| 
A|------------------------------------------| 
E|------------------------------------------| 

Parte 4 de 4 

E|------------------------------------------| 
B|-12---10--10---7--7--5--5/8---------------| 
G|------------------------------------------| 
D|------------------------------------------| 
A|------------------------------------------| 
E|------------------------------------------| 
E5 I'm running in circles A5 Chasing my pain E5 A5 Thinking that somehow, it will ends E5 A5 The clouds are heavy, they have blackened the sky E5 A5 B9/A And I don't even know, if I will survive Em A5 If you only, knew what I'm felling B5 Em Then you'd change your mind about it now A5 If you only, knew what you're doing B5 C5 Then you would never do this to me again D5 E5 My lo______ve Riff 2
Parte 1 de 2 

E|------------------------------------------| 
B|------------------------------------------| 
G|------------------------------------------| 
D|-----2-----0----2-------------------------| 
A|-----2-----0----2-------------------------| 
E|-----0-----0----0-------------------------| 

Parte 2 de 2 

E|------------------------------------------| 
B|------------------------------------------| 
G|------------------------------------------| 
D|-----------------5--7---5-----------------| 
A|-----5----7-----------------5---5---------| 
E|------------------------------------------|
share this page

See Also: