E-Chords
Dead Ghosts

Roky Said(Chords)

Dead Ghosts

Key: C
Enjoy 


        Intro 
e|-----------17~~~~~------15~~~~------17~~~~------15~~~~--------------------------------| 
B|-----------18~~~~~------16~~~~------18~~~~------16~~~~--------------------------------| 
G|-----------19~~~~~------17~~~~------19~~~~------17~~~~--------------------------------| 
D|-----------19~~~~~------17~~~~------19~~~~------17~~~~--------------------------------| 
A|--------------------------------------------------------------------------------------| 
E|--------------------------------------------------------------------------------------| 

       First Riff 
e|----------12---------10---------------------------------------------------------------| 
B|--------13--13-----12--12--------12---------10-----5------3--------10--------8--------| 
G|------14---------12------------13--13-----11------6-6----4-------11--11-----9----x2---| 
D|-----------------------------14---------12-------7------5------12---------10----------| 
A|--------------------------------------------------------------------------------------| 
E|--------------------------------------------------------------------------------------| 

 It's so easy to lead when there's no one in line .... 

e|--------------------------------------------------------------------------------------| 
B|------------5------3--------10--------8-----------------------------------------------| 
G|-----------6-6----4-4-----11--11-----9------------------------------------------------| 
D|----------7------5------12---------10-------------------------------------------------| 
A|--------------------------------------------------------------------------------------| 
E|--------------------------------------------------------------------------------------| 
   
      don't forget Roky said to leave your body behind 

       Believe me I'll be down on the floor 
       you won't think about me anymore 
  
e|----------12---------10---------------------------------------------------------------| 
B|--------13--13-----12--12--------12---------10-----5------3--------10--------8--------| 
G|------14---------12------------13--13-----11------6-6----4-------11--11-----9----x3---| 
D|-----------------------------14---------12-------7------5------12---------10----------| 
A|--------------------------------------------------------------------------------------| 
E|--------------------------------------------------------------------------------------| 

       You leave me low, no hope, alone forever 

e|----------12---------10---------------------------------------------------------------| 
B|--------13--13-----12--12--------12---------10----------------------------------------| 
G|------14---------12------------13--13-----11------------------------------------------| 
D|-----------------------------14---------12--------------------------------------------| 
A|--------------------------------------------------------------------------------------| 
E|--------------------------------------------------------------------------------------| 

     C     E     Am    D     G     A    Em           
e|---0-----0-----0-----2-----3-----0----0--------------------| 
B|---1-----0-----1-----3-----0-----2----0--------------------| 
G|---0-----1-----2-----2-----0-----2----0--------------------| 
D|---2-----2-----2-----0-----0-----2----2--------------------| 
A|---3-----2-----0-----x-----2-----0----2--------------------| 
E|---x-----0-----0-----x-----3-----0----0--------------------| 
C E But don't close your eyes Am D C just come over, that way you'll find G A E that there's no one else C E When the sun goes down A D it gets colder in this town C G A and still there's no one else
        Riff! 
e|----------12---------10---------------------------------------------------------------| 
B|--------13--13-----12--12--------12---------10-----5------3--------10--------8--------| 
G|------14---------12------------13--13-----11------6-6----4-------11--11-----9----x2---| 
D|-----------------------------14---------12-------7------5------12---------10----------| 
A|--------------------------------------------------------------------------------------| 
E|--------------------------------------------------------------------------------------| 

       The sun scrapes over the sky as your friends move along 

e|--------------------------------------------------------------------------------------| 
B|------------5------3--------10--------8-----------------------------------------------| 
G|-----------6-6----4-4-----11--11-----9------------------------------------------------| 
D|----------7------5------12---------10-------------------------------------------------| 
A|--------------------------------------------------------------------------------------| 
E|--------------------------------------------------------------------------------------| 
and don't forget Roky said you're gonna miss me when I'm gone Girl I'm six feet in the ground there's no pick me up for me in this town just leave me low no hope, alone forever
e|----------12---------10---------------------------------------------------------------| 
B|--------13--13-----12--12--------12---------10-----5------3--------10--------8--------| 
G|------14---------12------------13--13-----11------6-6----4-------11--11-----9----x3---| 
D|-----------------------------14---------12-------7------5------12---------10----------| 
A|--------------------------------------------------------------------------------------| 
E|--------------------------------------------------------------------------------------| 
C E But don't close your eyes Am D C just come over, that way you'll find G A E that there's no one else C E When the sun goes down A D it gets colder in this town C G A and still there's no one else
         Last Riff  
e|----------12---------10---------------------------------------------------------------| 
B|--------13--13-----12--12--------12---------10-----5------3--------10--------8--------| 
G|------14---------12------------13--13-----11------6-6----4-------11--11-----9---------| 
D|-----------------------------14---------12-------7------5------12---------10----------| 
A|--------------------------------------------------------------------------------------| 
E|--------------------------------------------------------------------------------------| 


           
e|--------------------------------------------------------------------------------------| 
B|------------5------3--------10--------8-----------------------------------------------| 
G|-----------6-6----4-4-----11--11-----9--------x4--------------------------------------| 
D|----------7------5------12---------10-------------------------------------------------| 
A|--------------------------------------------------------------------------------------| 
E|--------------------------------------------------------------------------------------| 


e|----------12---------10---------------------------------------------------------------| 
B|--------13--13-----12--12--------12---------10-----5------3--------10--------8--------| 
G|------14---------12------------13--13-----11------6-6----4-------11--11-----9---------| 
D|-----------------------------14---------12-------7------5------12---------10----------| 
A|--------------------------------------------------------------------------------------| 
E|--------------------------------------------------------------------------------------| 
END! Thank you!

roll up this ad to continue

share this page

See Also: