E-Chords
Dave Grohl

My Hero(Chords)

Dave Grohl

Key: C#
(Riff 1) 

e|--------0--0--4--4--4--4--4--4--4--4--4--4--| 
B|--------0--0--4--4--4--4--4--4--4--4--4--4--| 
G|--------------4--4--7--4--4--4--7--5--5--5--| 
D|--2--2--------6--6--6--6--6--6--6--6--6--6--| 
A|--2--2--------4--4--4--4--4--4--4--4--4--4--| 
E|--0--0--------x--x--x--x--x--x--x--x--x--x--| 
    E           C#5 

(Riff 2) 

e|--------------------| 
B|--------------------| 
G|-----------------2--| 
D|--4--4-----------2--| 
A|--4--4--4--2-----0--| 
E|--2--2--------4--x--| 
    F#             A5 
Intro (Riff 1 x4) E C#5 x4 (Riff 2) F# A5

Verse 1:

E C#5 Too alarming now E C#5 (Riff 1) To talk about E C#5 Take your pictures down E C#5 (Riff 1) And shake it out E C#5 Truth or consequence, E C#5 (Riff 1) Say it aloud E C#5 Use that evidence, E C#5 Race it around
(Riff 3) 

e|--------------------------------------------------------------------------------------------------| 
B|--------------------------------------------------------------------------------------------------| 
G|--------------8--8--8--8--9--9--9--9--11-11-11-11-------------8--8--8--8--9--9--9--9--6--6--6--6--| 
D|--7--7--7--7--7--7--7--7--7--7--7--7--7--7--7--7--7--7--7--7--7--7--7--7--7--7--7--7--7--7--7--7--| 
A|--0--0--0--0--------------------------------------0--0--0--0--------------------------------------| 
E|--------------------------------------------------------------------------------------------------| 
    A           D#          E5          F#          A           D#          E5          C# 

e|--------------------------------------------------------------------------------------------------| 
B|--------------------------------------------------------------------------------------------------| 
G|--------------8--8--8--8--9--9--9--9--11-11-11-11-------------8--8--8--8--9--9--9--9--4--4--4--4--| 
D|--------------x--x--x--x--x--x--x--x--x--x--x--x--------------x--x--x--x--x--x--x--x--x--x--x--x--| 
A|--------------6--6--6--6--7--7--7--7--9--9--9--9--------------6--6--6--6--7--7--7--7--2--2--2--2--| 
E|--0--0--0--0--------------------------------------0--0--0--0--------------------------------------| 
    E           D#          E5          F#          E           D#          E5          B 
(Riff 3) A D# E5 F# A There goes my hero D# E5 C# E D# E5 F# E D# E5 B Watch him as he goes A D# E5 F# A There goes my hero D# E5 C# E D# E5 F# E D# E5 B He's ordinary
(Riff 2) F# A5
Interlude 
e|--0--0--0-------0--0--0--| 
B|--4--5--4--0----0--0--0--| 
G|-----------5-------------| 
D|-------------------------| 
A|-------------------------| 
E|-------------------------| 

Verse 2:

E C#5 Don't the best of them E C#5 (Riff 1) Bleed it out E C#5 While the rest of them E C#5 (Riff 1) Peter out E C#5 Truth or consequence, E C#5 (Riff 1) Say it aloud E C#5 Use that evidence, E C#5 Race it around
(Riff 3) A D# E5 F# A There goes my hero D# E5 C# E D# E5 F# E D# E5 B Watch him as he goes A D# E5 F# A There goes my hero D# E5 C# E D# E5 F# E D# E5 B He's ordinary
(Riff 2) F# A5 Instrumental: E C#5 (x4)

Bridge:

E C#5 Kudos, my hero E C#5 Leaving all the best E C#5 You know my hero E C#5 The one that's on
A D#5 E5 F#5 A There goes my hero D#5 E5 C#5 E D# E5 F# E D# E5 B Watch him as he goes A D#5 E5 F#5 A There goes my hero D#5 E5 C# E D# E5 F# E D# E5 B He's ordinary A D#5 E5 F#5 A There goes my hero D#5 E5 C#5 E D# E5 F# E D# E5 B Watch him as he goes A D#5 E5 F#5 A There goes my hero D#5 E5 C# E D# E5 F# He's ordinary

roll up this ad to continue

share this page

See Also: