E-Chords
Dave Days

We Found Love(Chords)

Dave Days

roll up this ad to continue

Key: Am

    Am                     F                   C                     Dm  
e|-------------------------------------------------------------------------------------| 
B|-------1----------1----------1---------1----------1---------1----------3-------3-----| 
G|-----2---2------2---2------2---2-----2---2------0---0-----0---0------2---2---2---2---| 
D|-------------------------3---------3-------------------------------0-------0---------| 
A|--0----------0-------------------------------3---------3-----------------------------| 
E|-------------------------------------------------------------------------------------| 

Am F Yellow diamonds in the light C Dm Now we?re standing side by side Am F As your shadow crosses mine C Dm Am F What it takes to come alive C Dm Am F It?s the way I?m feeling I just can?t deny C Dm But I?ve gotta let it go Am F We found love in a hopeless place C Dm We found love in a hopeless place Am F We found love in a hopeless place C Dm We found love in a hopeless place Am F C Dm
       Am             F              C              Dm 
e|------------3-3-3----------3-3-3----------3-3-3----------------------------| 
B|-----5-5-5----------5-5-5----------5-5-5----------3---5--3--1--------------| 
G|---------------------------------------------------------------------------| 
D|---------------------------------------------------------------------------| 
A|---------------------------------------------------------------------------|x2 
E|---------------------------------------------------------------------------| 

Am F C Dm Am F Shine a light through an open door C Dm Love a life I will divide Am F Turn away 'cause I need you more C Dm Am F Feel the heartbeat in my mind C Dm Am F It?s the way I?m feeling I just can?t deny C Dm But I?ve gotta let it go Am F We found love in a hopeless place C Dm We found love in a hopeless place Am F We found love in a hopeless place C Dm We found love in a hopeless place Am Yellow diamonds in the light Am Now we?re standing side by side Am As your shadow crosses mine Solo: Am F C Dm Am F We found love in a hopeless place C Dm We found love in a hopeless place Am F We found love in a hopeless place C Dm We found love in a hopeless place (2x)
       Am             F              C              Dm 
e|------------3-3-3----------3-3-3----------3-3-3----------------------------| 
B|-----5-5-5----------5-5-5----------5-5-5----------3---5--3--1--------------| 
G|---------------------------------------------------------------------------| 
D|---------------------------------------------------------------------------| 
A|---------------------------------------------------------------------------| 
E|---------------------------------------------------------------------------|

share this page

See Also: