E-Chords
Daryll-ann

Marching(Chords)

Daryll-ann

roll up this ad to continue

Key: D
Intro 
e|-x-x-x-------x-x-x----------------------|  (8x) 
B|-3-3-3-------3-3-3--3-------------------| 
G|-0h2---------0-0h2-------------------0--| 
D|--------0--------------0-------0-0h2----| 
A|-------------------------0-0h3----------| 
E|----------------------------------------| 
verse 1 D Marching marching till you pop Bb C G Down with the parade of anger D D/C D/B G Forcing the boots forward till I drop C Gm Race till tomorrow afternoon C Gm Gm C D Race till the morning and after verse 2 D Raging raging from the top Bb C G On the parade of laughter D G Keeping the mood up until I stop C Gm Gsus4 Gm Face up tomorrow afternoon C Gm Gsus4 Gm Bb F Face up tomorrow and after Break Gm Am Gm Am Gm Am Gm Gm Am D
Repeat Intro 
e|-x-x-x-------x-x-x----------------------| (4x) 
B|-3-3-3-------3-3-3--3-------------------| 
G|-0h2---------0-0h2-------------------0--| 
D|--------0--------------0-------0-0h2----| 
A|-------------------------0-0h3----------| 
E|----------------------------------------| 
verse 3 D Barking barking till you bite Bb C G On the parade of anger D D/C D/B G Gotta keep the mood up until the fight C Gm Gsus4 Gm Makes up for every afternoon C Gm Gsus4 Gm War till tomorrow and after C Gm Gsus4 Gm Makes up for every afternoon C Gm Gsus4 Gm War till tomorrow and after C Gm Gsus4 Gm Makes up for every afternoon C Gm Gsus4 Gm War till tomorrow and after
Outro 
Gm   C   D 
e|-x-x-x-------x-x-x----------------------|  (4x) 
B|-3-3-3-------3-3-3--3-------------------| 
G|-0h2---------0-0h2-------------------0--| 
D|--------0--------------0-------0-0h2----| 
A|-------------------------0-0h3----------| 
E|----------------------------------------|
share this page

See Also: