E-Chords
Darren Hayes

Falling At Your Feet(Chords)

Darren Hayes

roll up this ad to continue

Key: D
' Falling at your feet' this included in the limited edition 
'Insatiable' previous to the album 'Spin.' 
 
VERSE 1: 
D, D9 (repeat) 
Bm               Em (repeat) 
  Deny the world, deny... 
G 
  I h... 
A 
  I on... 
 
CHORUS: 
D, D9 (repeat) 
                    F#m      Bm 
You make me wanna sit right by 
                A 
And watch the world f... 
 
VERSE 2: 
D, D9 (repeat) 
Bm               Em (repeat) 
  Deny the world, deny... 
G 
  I h... 
A 
  I on... 
 
(Chorus) 
 
BRIDGE: 
Bb 
   And if l... 
          F 
Means becoming ... 
Bb 
   Then I ... 
    C9                    D 
Something beautiful too... 
D, D9 (repeat) 
F#m, Bm, A 
 
VERSE 3: 
D, D9 (repeat) 
 
(Chorus repeat) 
In the second chorus repeat: F#m, Bm, A 
And later D, D9 (repeat) 
 
In guitar you can play in the verses 2, 3 and in the all 
choruses. 
 
        D9               D 
e -----0------0-|-----0------2-| 
B ---------3----|---------3----| 
G ---2---2------|---2---2------| 
D -0------------|-0------------| 
A --------------|--------------| 
E --------------|--------------| 
 
    F#m     Bm     A 
e --------------|--------------| 
B -------2----3-|--------3-2h3-| 
G -----2----4---|------2-------| 
D ---4----------|----2---------| 
A ----------2---|-0------------| 
E -2------------|--------------|
____________________________________________________ TABBED BY: Oscar Jaimes ([email protected])
share this page

See Also: