E-Chords
Danne Strauss

Velho Lobo(Chords)

Danne Strauss

roll up this ad to continue

Key: E
Intro: F#  G#  F#  A  B  C#  B  A  G#  F# 

       F#m         A  F#m             B                     F#m 
E|------------------------------------------------------------| 
B|------------------------------------------2-----------------| 
G|-------1-2-1--------------1-2-1---4~--2h4-----4--2--1-------| 
D|---4-4-------4-2~-4---4-4-------4-----------------------4---| 
A|-4------------------4---------------------------------------| 
E|------------------------------------------------------------| 

             A  F#m             B             A      B     F#m 
E|------------------------------------------------------------| 
B|----------------------------------2-------------------------| 
G|-1-2-1--------------1-2-1---4-2h4---4-2-1-2~-1h2-4-2p1------| 
D|-------4-2~-4---4-4-------4----------------------------4----| 
A|--------------4---------------------------------------------| 
E|------------------------------------------------------------| 
( E F#m E F#m ) ( E F#m E F#m ) F#m B A B F#m Um homem velho admirava o pôr do Sol A G#m D F#m (E F#m)4x Na fivela, um brasão, a marca de sua família. F#m B A B F#m Um velho lobo que se perdeu da matilha A G#m D F#m (E F#m)4x No rio pescava peixes sem anzol
      F#m  B    F#m 
E|-------7~-7\2----------------------| 
B|--7-----------------4----3---------| 
G|-----------------------4----4------| 
D|-----------------------------------| 
A|-----------------------------------| 
E|-----------------------------------| 
       F#m                                           G#m  A   E 
E|---2-2-2h4p2p0-2-2-2h4p2p0-2-2-2h4p2p0-2-2-2h4p2p4--4-5-5-0----| 
B|-2-------------------------------------------------------------| 
G|---------------------------------------------------------------| 
D|---------------------------------------------------------------| 
A|---------------------------------------------------------------| 
E|---------------------------------------------------------------| 
G#m B D F#m Ex-soldado já cansado, suas batalhas ficaram para trás C#m G#m D F#m (E F#m) Um guerreiro aposentado, convocado a lutar uma vez mais F#m B A B F#m O velho coldre e a pistola bem guardada A G#m D F#m (E F#m) Foram amigos de outrora de uma sangrenta cruzada F#m B A B F#m Bravura e honra, preza por justiça e igualdade A G#m D F#m (E F#m) A pedido do xerife expulsará os bandidos da cidade F#m B A B F#m Lutou e venceu, e fez abrir um facho de luz A G#m D F#m (E F#m) De esperança no amanhã, pois cada um carrega sua cruz F#m B A B F#m A paz voltou e sossegado foi descansar A G#m D F#m Lá no alto da colina decidido a nunca mais lutar
      F#m  B    F#m 
E|-------7~-7\2----------------------| 
B|--7-----------------4----3---------| 
G|-----------------------4----4------| 
D|-----------------------------------| 
A|-----------------------------------| 
E|-----------------------------------| 

       F#m                                           G#m  A   E 
E|---2-2-2h4p2p0-2-2-2h4p2p0-2-2-2h4p2p0-2-2-2h4p2p4--4-5-5-0----| 
B|-2-------------------------------------------------------------| 
G|---------------------------------------------------------------| 
D|---------------------------------------------------------------| 
A|---------------------------------------------------------------| 
E|---------------------------------------------------------------|
share this page

See Also: