E-Chords
Ctrl+Alt+Del

Princípios(Chords)

Ctrl+Alt+Del

Key: C
TABLATURA por Alexandre Belchior.  | 
www.flogao.com.br/montagem0        | 
----------------------------------/ 
Legendas: 
/=Slide arrastar o dedo 
b=bend 
 
 
intro:C G A F 2 vezes 
 
C                     
Estava na calçada 
 
G 
Bateu um vento no meu rosto 
 
A 
E eu muito disposto 
 
F 
A uma música a fazer 
 
C 
Mas a letra eu não tenho 
 
G                A   
Quero que se foda, que tudo se comoda 
 
F 
E o mundo que se exploda 
 
C 
Porque tu vem a mim? 
 
G 
O culpado eu não sou 
 
A                       F 
Nesse mundo de desgosto eu não sei pra onde vou 
 
D 
Porque tudo é tão lindo 
 
A 
Nesse mundo de ilusão 
 
B 
Vou seguir o meu caminho 
 
G 
Com muita disposição 
 
D 
Sem poder olhar pra trás 
 
A 
Agora não dá mais 
 
B 
Eu vou ter que ir embora 
 
G 
E te deixar em paz 
 
 
1ºSolo: obs: bater várias vezes na 13, 12, 14 e 10 casa, acompanhando a base> 
Exemplo a 13ª casa significa a nota de C então vc deve bater nela até a base trocar 
para G que no caso é a 12ª casa e assim por diante. 
 
E------------------------------------------- 
B--13--------------------------------------- 
G----12--14--10----------------------------- 
D------------------------------------------- 
A------------------------------------------- 
E------------------------------------------- 
 
2º solo: 
 
Obs: quando chegar a 20ª casa logo depois do bend na 19ª casa bata varias vezes na 20ª 
casa ela representa C depois vá para a 20ª casa na corda de B e bata varias vezes 
ela representa G depois vá para 22ª casa e bata varias vezes ela representa A 
depois vá para a 18ª casa e tambem faça a mesma coisa e depois faça 5bends na mesma 
casa e vá para a 13ª casa na corda de E e bata uma vez só e pronto, é simples, o solo 
está feito!!!!!!!!!!!!!!!!! 
 
E------------------------------------------------15/17-15-17---------15------17----------------------19b-19-20------------- 
B--13-----------------13-10-----------------13-----------------13-18------18------18-20-22-20-22---------------20-22-18---- 
G-----12-10-12-14----------12-10-12/14------------------------------------------------------------------------------------- 
D-------------------------------------------------------------------------------------------------------------------------- 
A-------------------------------------------------------------------------------------------------------------------------- 
E-------------------------------------------------------------------------------------------------------------------------- 
 
 
----------------------13----------- 
--18b-18b-18b-18b-18b-------------- 
----------------------------------- 
----------------------------------- 
----------------------------------- 
----------------------------------- 
C Meio caminho tá andado G A idéia já surgiu A Eu vou seguir em frente F Zuar pelo Brasil C Minha história escrever G Tudo girou a meu favor A Cada um com seu princípio F Você vai pra onde eu for C Porque tu vem a mim? G O culpado eu não sou A F Nesse mundo de desgosto eu não sei pra onde eu vou!!

roll up this ad to continue

share this page

See Also: