E-Chords
Crywank

Song For A Guilty Sadist(Chords)

Crywank

Intro/Verse   

e|-------------------------------------|   
B|--------------------3p0--------------|   
G|----7-------0------------------------|   
D|--9---0---4---4---2-------0---0------| First time only   
A|7-------5-------3-------2---2--------|   
E|-------------------------------------|   

e|-------------------------------------|   
B|--------------------3p0--------------| x3 before lyrics   
G|----7-0-----0------------------------|   
D|--9-------4---4---2-------0---0------| x8 with lyrics   
A|7-------5-------3-------2---2--------|   
E|-------------------------------------|   

Chorus   

e|--------------------------------------------|   
B|----7p0------5p0------3p0-----1p0-----------|   
G|--------------------------------------------|   
D|--9-------4--------2--------0---------------| x2 without lyrics   
A|7-------5--------3--------2-----------------|    
E|--------------------------------------------| 4x with lyrics   

How rude of me to bring my thoughts into your bedroom.    

Is it condescending to be so scared I might hurt you.   

Outro   

e|-------------------------------------|   
B|--------------------3p0~~------------|   
G|----7-0-----0------------------------|   
D|--9-------4---4---2------------------| 2x without lyrics   
A|7-------5-------3--------------------|    
E|-------------------------------------| 2x with lyrics   


************************************   
| p  Pull-off   
| ~  Vibrato   
************************************   

roll up this ad to continue

share this page

See Also: