E-Chords
Cristina Santtos

Tenha Fé(Chords)

Cristina Santtos

Key: D
Intro D  G  A  G/B  A/C# 

E|-------2----2-----0---------------| 
B|------------------------3---------| 
G|------------------------------2---| 
D|----------------------------------| 
A|----------------------------------| 
E|----------------------------------|

Verse 1:

D Porque não lutar G A Se existe alguém que cuida de você D D/F# As ondas podem tentar te afogar G Mas você tem um Deus A G/B Que te faz andar sobre o mar
D Bm7 Tenha fé em Deus pra lutar G Deus te ajuda A E te faz andar sobre o mar D Bm7 Com poder ele vai te levantar G Tenha fé em Deus A D Ele vai te ajudar

Verse 2:

D D/F# Sei que posso lutar G A G/B A/C# Pois existe alguém que cuida de mim D D/F# As ondas podem tentar me afogar G Mas eu tenho um Deus Em G/B A Que me faz andar sobre o mar
D A/C# Bm7 Am7 Eu Tenho fé em Deus pra lutar D/F# G Deus me ajuda A4 A E me faz andar sobre o mar D Bm7 Com poder ele vai me levantar G Eu tenho fé em Deus A D Ele vai me ajudar
Final D
E|-------2----2-----0---------------| 
B|------------------------3---------| 
G|------------------------------2---| 
D|----------------------------------| 
A|----------------------------------| 
E|----------------------------------|

roll up this ad to continue

share this page

See Also: