E-Chords
Creed

Don't Stop Dancing(Chords)

Creed

Watch the video lesson
Key: G
E|0-0--0-0---------0---------|-0-0--0-0-----------0---------|                
B|0-0--3-3-----------3-------|-1-1--0-0------------8--------| 
G|0-0--0-0------0------0-----|-0-0--0-0-------0------0------|
D|0-0--4-4----4---------0----|-2-2--0-0------9--------------|
A|2-2--5-5--5----------------|-3-3--3-3---10----------------|
E|3-3--0-0-------------------|-0-0--0-0---------------------|
G D/F# At times life is wicked and I just can't C G/B see the light G D/F# A silver lining sometimes isn't enough C G/B To make some wrongs seem right G D/F# Whatever life brings C I've been through everything G/B And now I'm on my knees again Am But I know I must go on C Although I hurt I must be strong Em Because inside I know that many C/D feel this way
G D A/C# Children don't stop dancing C G Believe you can fly D A/C# C Away.away
(G D/F# C G/B) (2x) G D/F# At times life's unfair and you know C G/B it's plain to see G D/F# Hey God I know I'm just a dot in this world C G/B Have you forgot about me? G D/F# Whatever life brings C I've been through everything G/B And now I'm on my knees again Am But I know I must go on C Although I hurt I must be strong Em Because inside I know that many C/D feel this way (ReFrÃo) Base(Solo)-( G D/F# C G/B)3x
Solo:
E|-12--14--15-17^--17^------------------------------------------------------
B|-----------------------15------------15-----------15^--15----------15------
G|---------------------------14-16-14------14-16-14---------14-16-14----14---

B|------15b|
G|16-14----|

E|-15-----------15----------15^----------------------------------------------
B|----14-16-14-----14-16-14-----16-14-----14-16-14^--------------------------
G|------------------------------------17------------17-16-16-17-16-14-12-----

B|15^--15^--|
D A/C# C G Am I hiding in the shadows? D A/C# C G Forget the pain and forget the sorrows (2x) Am But I know I must go on C Although I hurt I must be strong Em Because inside I know that many C/D feel this way G D A/C# Children don't stop dancing C G Believe you can fly D A/C# C Away.away (ReFrÃo 2x) G D/F# C G/B Am I hiding in the shadows? G D/F# C G/B Are we hiding in the shadows?

roll up this ad to continue

share this page

See Also: