E-Chords
Courtney Barnett

Porcelain(Chords)

Courtney Barnett

roll up this ad to continue

Key: G
Intro: Am                G              x6 
Bass: G|2--02--02--0-----0--0--0-----|  x6 
      D|------------20-----3--3--320-| 
      A|--------------3-------------3| 
      E|-----------------------------| 
verse 1: Am I found you at the store G Pretty as porcelain Am You are worth so much more G Than what you?re going for Am Don?t let them handle you G You better start praying Am That ain?t no way to be G I got a colour TV Instrumental: Am G x2
Bass: G|2--02--02--0-----0--0--0-----|  x2 
      D|------------20-----3--3--320-| 
      A|--------------3-------------3| 
      E|-----------------------------| 
verse 2: Am I?ll listen a thousand times G You can repeat yourself Am If it helps clear your mind G It?s just another night Am Call me when you are done G I?ll count my tickets up Am No need to feel so low G You?re just as low as you could go Instrumental: Am G x8
Bass: G|2--02--02--0-----0--0--0-----|  x8 
      D|------------20-----3--3--320-| 
      A|--------------3-------------3| 
      E|-----------------------------| 

Instrumental w/riff: 

                 Am                    G              x10 

Riff: e|----------------------------------------|     x10 
      B|3/5-3-1---3---1------3/5-3-1---3---1---0| 
      G|------------------2---------------------|  
      D|----------------------------------------| 
      A|----------------------------------------| 
      E|----------------------------------------| 

       Am                G 

Bass: G|2--02--02-0------0--0--0-----|  x10 
      D|------------20-----3--3--320-| 
      A|--------------3-------------3| 
      E|-----------------------------| 
Outro: Am G
share this page

See Also: