E-Chords
Coti

50 Horas(Chords)

Coti

Key: E
e|-------------------------------|------------------------------------| 
B|-------------------------------|------------------------------------| 
G|-------------------------------|------------------------------------| 
D|-------2--4/6--4----2--4/6--4--|--------2--4/6--4----2--4/6--4--2---| 
A|--2--4-------------------------|--2--4------------------------------| 
E|-------------------------------|------------------------------------| 

e|--------------------------------------------------------------------| 
B|--------------------------------------------------------------------| 
G|---------------------------------1--4--1----------------------------| 
D|-------2--4/6--4--------------2----------4--2--2--------------------| 
A|--2--4-------------------2-4----------------------------------------| 
E|--------------------------------------------------------------------|
E G#m7 Se cayeron mis creencias por el suelo C#m7 Como papeles pisados F#m7 D El francés me suena como el arameo B Y parís desencajado E G#m7 El futuro es una caja de promesa C#m7 Y la promesa ya es de humo F#m7 D Yo te escucho no tengo nada mejor B Que hacer después del desayuno A B G#m7 C#m7 No puede ser, que estés, tan sola A B G#m7 No puede ser que estés tan sola C#m7 A B G#m7 C#m7 Con lo buena que estas, yo podría estar 50 horas A G#m7 F#m7 B7 E Robándote besos, de esos que vos me dejas robar INTERLUDIO: A B G#m7 C#m7 - A B E Tocar Nuevamente la Tablatura del Intro E G#m7 Es tan lindo el sol nos da la bienvenida C#m7 Y los gorriones en silencio F#m7 D Se devoran lo que se nos cae al suelo B Las penas y lo desvelos E G#m7 El papel es un cuchillo y tu mirada C#m7 La propina de la noche F#m7 D Si las cuerdas se te oxidan con el tiempo B La madera se hace roble A B G#m7 C#m7 No puede ser, que estés, tan sola A B G#m7 No puede ser que estés tan sola C#m7 A B G#m7 C#m7 Con lo buena que estas, yo podría estar 50 horas A G#m7 F#m7 B7 E Robándote besos, de esos que vos me dejas robar A B G#m7 C#m7 No puede ser, que estés, tan sola A B G#m7 No puede ser que estés tan sola C#m7 A B G#m7 C#m7 Con lo buena que estas, yo podría estar 50 horas A G#m7 F#m7 B7 E Robándote besos, de esos que vos me dejas robar OUTRO: A B G#m7 C#m7 - A B E
TABLATURA DEL OUTRO: 

e|-------------------------------|------------------------------------| 
B|-------------------------------|------------------------------------| 
G|-------------------------------|------------------------------------| 
D|-------2--4/6--4----2--4/6--4--|--------2--4/6--4----2--4/6--4--2---| 
A|--2--4-------------------------|--2--4------------------------------| 
E|-------------------------------|------------------------------------| 

e|--------------------------------------------------------------------| 
B|--------------------------------------------------------------------| 
G|---------------------------------1--4--1----------------------------| 
D|-------2--4/6--4--------------2----------4--2--2--------------------| 
A|--2--4-------------------2-4----------------------------------------| 
E|--------------------------------------------------------------------|

roll up this ad to continue

share this page

See Also: