E-Chords
Confraria da Costa

O Canalha Que Tu És(Chords)

Confraria da Costa

Key: Gm
Intro: Gm  C  Gm  C  Gm  D7  Gm 

E|-------------------------------------| 
B|-------------------------------------| 
G|--7--5-------------------------------| 
D|--------7--8--5----------------------| 
A|--5--3-------------------------------| 
E|--------5--6--3----------------------| 
Gm Gm7+ Omita alguns fatos Gm7 C Encubra uns defeitos Cm Gm9/A D7 Altere o rumo das marés Gm Gm7+ Minta com classe Gm7 C Engane com jeito Cm D7 Gm Na beca da cabeça aos pés C Gm C Gm Pois assim ninguém reconhecerá C Gm D7 Gm D7 O canalha que tu és Gm Gm7+ Se alguém espiasse Gm7 C Por debaixo do pano Cm Gm9/A D7 Te expulsaria a ponta pés Gm Gm7+ Às vezes é preciso Gm7 C Jogar um jogo sujo Cm D7 Gm Pra ficar com o melhor filé C Gm C Gm E assim ninguém reconhecerá C Gm D7 Gm O canalha que tu és C Gm C Gm Pois assim não se reconhecerá C Gm D7 Gm O canalha que tu és Gm Gm7+ Se alguém espiasse Gm7 C Por debaixo do pano Cm Gm9/A D7 Te expulsaria a ponta pés Gm Gm7+ Ouça o que eu digo Gm7 C E te chamarão pelo nome Cm D7 Gm Nos melhores cabarés C Cm D7 Gm Nos melhores cabarés C Cm D7 Gm Nos melhores cabarés Solo Gm Gm7+ Gm7 C Cm Gm9/A D7 Gm Gm7+ Gm7 C Cm D7 Gm D7 Gm C Gm C Gm D7 Gm D7 Gm Gm7+ Omita alguns fatos Gm7 C Encubra uns defeitos Cm Gm9/A D7 Altere o rumo das marés Gm Gm7+ Minta com classe Gm7 C Engane com jeito Cm D7 Gm Na beca da cabeça aos pés C Gm C Gm Pois assim ninguém reconhecerá C Cm D7 Gm O canalha que tu és C Gm C Gm Pois assim ninguém reconhecerá C Cm D7 Gm O canalha que tu és C Cm D7 Gm O canalha que tu és C Cm D7 Gm O canalha que tu és C Cm D7 Gm O canalha que tu és
Solo 

E|----------------------------------------------------------| 
B|----------------------------------------------------------| 
G|---------------------------------2------------------------| 
D|-----5-4-5-7--8/5--------5-4-3-4----4----0h5-0h3-0h1p0-0--| 
A|--5---------------5/4-3---------------5-------------------| 
E|----------------------------------------------------------| 

E|----------------------------------------------------------| 
B|----------------------------------------------------------| 
G|--------------------------------5--7-8--10p8-7------------| 
D|-----5-4-5-7--8/5--------5--7-8---------------------------| 
A|------------------5/4-3-----------------------------------| 
E|----------------------------------------------------------| 

E|--------------------|-------------------------------------| 
B|--------------------|-------------------------------------| 
G|--7-7-7-7-5-3-5-7-3-|-------------------------------------| 
D|--8-8-8-8-7-5-7-8-5-|-------------------------------------| 
A|--------------------|-4p5h4p5h4p5h4p5h4p5h4p5h4p5h4p5h4p5-| 
E|--------------------|-------------------------------------| 

E|--------------------| 
B|--------------------| 
G|--7-7-7-7-5-3-5-3---| 
D|--8-8-8-8-7-5-7-5---| 
A|--------------------| 
E|--------------------| 
( D7 )

roll up this ad to continue

share this page

See Also: