E-Chords
Confraria da Costa

Meu Pequeno Demônio(Chords)

Confraria da Costa

Key: G
Solo 

E|----------------------------------| 
B|----------------------------------| 
G|-------0-----------0--------------| 
D|-----0---0-2b3-2-0---------3-5----| 
A|-1/2-----------------1-1/2---5----| 
E|----------------------------------| 

       G                
E|----------------------------------| 
B|----------------------------------| 
G|-------0---------------/4-3/2-----| 
D|-----0---0-2b3-2-0------------5~--| 
A|-1/2-----------------5------------| 
E|----------------------------------| 

E|----------------------------------| 
B|----------------------------------| 
G|-------0-----------0--------------| 
D|-----0---0-2b3-2-0---------3-5----| 
A|-1/2-----------------1-1/2---5----| 
E|----------------------------------| 

       G                
E|----------------------------------| 
B|----------------------------------| 
G|-------0---------------/4-3/2-----| 
D|-----0---0-2b3-2-0------------5~--| 
A|-1/2-----------------5------------| 
E|----------------------------------| 

       G                
E|----------------------------------| 
B|----------------------------------| 
G|---/4-3/2-------------------------| 
D|----------5~-5----5-----4~--------| 
A|-5-------------6b---7-6-5~--------| 
E|----------------------------------| 

       G                    G 
E|-----------------------------3----| 
B|-----------------------------3----| 
G|-------0-----------0---------0----| 
D|-----0---0-2b3-2-0-----------0----| 
A|-1/2----------------5-3-1----2----| 
E|--------------------------3--3----| 
G C Meu pequeno demônio G Faz tanta coisa pra eu desfazer D7 Não quero nem pensar G Em quando você crescer C Sei que não é por mal G Muito menos por bem D7 É só que simpatia e boas maneiras G Ele não contém C Mas às vezes eu o levo G Para passear, dar uma volta D7 Mas depois quando eu peço pra soltar minha corrente G Ele nunca solta C Meu pequeno demônio G Já fala até latim D7 E quando me dou conta G Ele falou por mim C Eu já nem sei quando nossa sociedade G Teve inauguração D7 Só sei que eu já não fiz G Primeira comunhão C Sempre procurando saber G Como se faz do pior modo possível D7 Só pra depois sussurrar G Dentro do meu ouvido Solo C Eu nunca vi o seu rosto G Nas vezes em que ele sai D7 Mas quem já viu me garantiu que G Hmmm ele é a cara do pai C Meu pequeno demônio G Inseparável companheiro eterno D7 E assim, lado a lado G Caminhamos para o inferno

roll up this ad to continue

share this page

See Also: