E-Chords
Coleman WIlliams

Son Of Sin(Chords)

Coleman WIlliams

Key: D
Intro 
F6 D F6 D F6 D D7 Db D 

Chorus 
    F6             D 
Well, get back and on again 
                D7         Db  D 
Cause I'm just another old son of sin 
          F6         D 
I'm just another old son that's been broke 
              D7           Db      D 
Passed like a bottle right through my kin 
F6              D 
Ain't no matter where you've been 
      D7                   Db  D 
Cause I'm just another old son of sin 
Interlude 
e|--------------------------------------------------| 
B|---------------3---------------------3------------| 
G|---------------2--------0h2----------2---------x4-| 
D|---------------0--------------0------0------------| 
A|--------------------------------------------------| 
D|---3p0--0-----------------------------------------| 
verse 1 D I went to church and nailed a few Dm And there I thought I might talk with you D Except the problem that's always been Dm You ain't listening, I can't swim D Pop a quarter and watch me cry and Dm Speak few words rolling through my mind D Might hate it, might make you grin Dm You might jump from my strange band Chorus F6 D Well, get back and on again D7 Db D Cause I'm just another old son of sin F6 D I'm just another old son that's been broke D7 Db D Passed like a bottle right through my kin F6 D Ain't no matter where you've been D7 Db D Cause I'm just another old son of sin
Interlude 
e|--------------------------------------------------| 
B|---------------3---------------------3------------| 
G|---------------2--------0h2----------2---------x4-| 
D|---------------0--------------0------0------------| 
A|--------------------------------------------------| 
D|---3p0--0-----------------------------------------| 
verse 2 D I went to broadway to change my mind Dm Snakes and ladders slowed down time D Young ?? and ??? men Dm Cornering tables are my dear friends D Bass stomping and a filling line Dm Speak like whispers, downtown's prime D And days, they've come and went Dm Oh I smoke where ???
F6 D Well, get back and on again D7 Db D Cause I'm just another old son of sin F6 D I'm just another old son that's been broke D7 Db D Passed like a bottle right through my kin F6 D Ain't no matter where you've been D7 Db D Cause I'm just another old son of sin D I'm just another old son that's been broke N.C. Passed like a bottle right through my kin D Ain't no matter where you've been D7 Db D Cause I'm just another old son of sin

roll up this ad to continue

share this page

See Also: