E-Chords
Coldplay

Adventure Of A Lifetime(Chords)

Coldplay

roll up this ad to continue

Watch the video lesson
Key: Dm
  
E|17----17---------------------------|   
B|---17----17-15-17-15---------------|   
G|---------------------17------------|  (x2)   
D|------------------------19-BN-17---|   
A|-----------------------------------|   
E|-----------------------------------|   

E|15----15---------------------------|15----15----------------19----20-19|   
B|---17----17-15-17-15---------------|---17----17-15-17-15---------------|  
G|---------------------17------------|---------------------17------------|  Repeat entire sequence     
D|------------------------19-BN-17---|-----------------------------------|   
A|-----------------------------------|-----------------------------------|   
E|-----------------------------------|-----------------------------------|  
BN= Bending of the string-   
 
Intro: Dm G Am (4x) Dm G Am Turn your magic on, to me she'd say Dm Everything you want is a dream away G Am We are legends, every day That's what she told me Dm G Am Turn your magic on, to me she'd say Dm Everything you want is a dream away G Am Under this pressure, under this weight We are diamonds Dm G I feel my heart beating Am I feel my heart underneath my skin Dm I feel my heart beating Dm G Am Dm G Oh, you make me feel like I'm alive again alive again Am Oh, you make me feel like I'm alive again Dm G Am Said I can't go on, not in this way Dm I'm a dream, I die by light of day G Am Gonna hold up half the sky and say Oh, we are omen Dm G I feel my heart beating Am I feel my heart underneath my skin Dm Oh, I can feel my heart beating Dm G Am Dm G Oh, you make me feel like I'm alive again alive again Am Oh, you make me feel like I'm alive again (Dm G Am) Dm G Am Turn your magic on, to me she'd say Dm Everything you want is a dream away G Am Under this pressure, under this weight Dm We are diamonds taking shape We are diamonds taking shape (Dm G Am) (x2) Dm G If we've only got this life Am Then this adventure, more than I Dm G And if we've only got this life Am You'll get me through oh Dm G And if we've only got this life Am Then this adventure, more than I Dm Wanna share it with you G Am With you, with you Sing it, oh Dm G Woohoo (woohoo) Woohoo (woohoo) Am Woohoo (woohoo) Woohoo (woohoo) (x3)
      
E|13----13----13----13-12---|--------------------------|12----------------12------|   
B|--------------------------|15----15----15----15-13-15|------------13-15---------|   
G|--------------------------|--------------------------|------14-14----------14-14|   
D|--------------------------|--------------------------|--------------------------|   
A|--------------------------|--------------------------|--------------------------|   
E|--------------------------|--------------------------|--------------------------|  
share this page

See Also: