E-Chords
Chelsea Grin

Angels Shall Sin Demons Shall Pray(Chords)

Chelsea Grin

roll up this ad to continue

Key: G
Tuning: Drop G (7 String) (G-D-G-C-F-A-D) 

Intro (0:00 - 0:05) 
Guitar 1 
D|------------------| 
A|---------5--------| 
F|---5---5---5---5--| 
C|-9---9-------9----| X4 
G|------------------| 
D|------------------| 
G|------------------| 

Guitar 2,3 
D|----------------------| 
A|----------------------| 
F|-*Volume Swell/Fade In| 
C|----------------------| 
G|-----0~~--------------| 
D|-----0~~--------------| 
G|-----0~~--------------| 

Main Riff (0:05 - 0:23) 

Guitar 1 
D|------------------| 
A|---------5--------| 
F|---5---5---5---5--| 
C|-9---9-------9----| X16 
G|------------------| 
D|------------------| 
G|------------------| 

Guitar 2,3 
D|----------------------------------------| 
A|----------------------------------------| 
F|----------------------------------------| 
C|----------------------------------------| X4 
G|-1--------------------------------------| 
D|-1-000--00--00000--0000--0000-00000-----| 
G|-1-000--00--00000--0000--0000-00000-----| 
P.M  ...  ..  .....  ....  .... ..... 

Our Silent Screams... (0:23 - 0:33) 

Guitar 1 
D|----------------------|-----------------------| 
A|---------5------------|---------6-------------| 
F|---5---5---5---5------|---6---6---6----6------| 
C|-9---9-------9----X4--|-10--10------10-----X4-| 
G|----------------------|-----------------------| 
D|----------------------|-----------------------| 
G|----------------------|-----------------------| 

Guitar 2 (0:23)          Guitar 3 (0:28) 
D|----------------------|-----------------------| 
A|----------------------|-----------------------| 
F|----------------------|-----------------------| 
C|----------------------|-----------------------| 
G|----------------------|-----------------------| 
D|----------------------|-----------------------| 
G|-000-00000------------|-000-00000-------------| 

First Verse (0:33 - 0:52) 

Guitar 1,2,3 
D|---------------------5+-----------------| 
A|----------------------5+----------------| 
F|-----------------------5+---------------| 
C|------------------------5+--------------| X3 
G|----------------------------------------| 
D|--2-1-0-1-2-1-2-1---------0-1-2-1-2-1---| 
G|--2-1-0-1-2-1-2-1---------0-1-2-1-2-1---| 
P.M . . . . . . . .         . . . . . . 

Guitar 1,2,3 
D|---------------------5+-----------------------| 
A|----------------------5+----------------------| 
F|-----------------------5+---------------------| 
C|------------------------5+--------------------| 
G|----------------------------------------------| 
D|--2-1-0-1-2-1-2-1---------0-1-2-1-------------| 
G|--2-1-0-1-2-1-2-1---------0-1-2-1-0000-0000---| 
P.M . . . . . . . .         . . . . .... .... 

Chorus (0:52 - 1:12) 

Guitar 1 
D|----------------------------------------------------------| 
A|----------------------------------------------------------| 
F|----------------------------------------------------------| 
C|----------------------------------------------------------| X2 
G|----------------------------------------------------------| 
D|----------------------------------------------------------| 
G|-12t-0t-0t-12t--0t-0t-12t-13t-11t-0t-0t-11t-0t-0t-11t-13t-| 

D|--------------------------------------------------| 
A|--------------------------------------------------| 
F|--------------------------------------------------| 
C|--------------------------------------------------| 
G|--------------------------------------------------| 
D|-8t-------8t-------8t-10t-7t------7t-------7t-10t-| 
G|----0t-0t----0t-0t-----------0t-0t---0t-0t--------| 

D|--------------------------------------------------------| 
A|--------------------------------------------------------| 
F|--------------------------------------------------------| 
C|--------------------------------------------------------| 
G|--------------------------------------------------------| 
D|-12t-------12t------12t-14t-11t-------11t-------11t-14t-| 
G|-----0t-0t----0t-0t-------------0t-0t-----0t-0t---------| 

Guitar 2,3 
D|------------------------------------------------------------------------------| 
A|------------------------------------------------------------------------------| 
F|------------------------------------------------------------------------------| 
C|------------------------------------------------------------------------------| X2 
G|------------------------------------------------------------------------------| 
D|--000-------000-000-000-000-000----000-000-000-000-000----000-000-000-000-000-| 
G|--000-------000-000-000-000-000----000-000-000-000-000----000-000-000-000-000-| 
P.M ...       ... ... ... ... ...    ... ... ... ... ...    ... ... ... ... ... 


Pause (1:12 - 1:14) 

Guitar 1 
D|-------------| 
A|-------------| 
F|-------------| 
C|-------------| 
G|-------------| 
D|-------------| 
G|-0000--00000-| 

Second Verse (1:14 - 1:33) 

Guitar 2 
D|---------------------------| 
A|---------------------------| 
F|-15-------14------10-------| 
C|-x---X32--x--X16--x---X16--| 
G|-13-------12------8--------| 
D|---------------------------| 
G|---------------------------| 

Guitars 1 and 3 play the verse riff (0:33), but guitar 1 plays this at 1:31: 
D|-18-15-18-15-----15-12-15-12--------------------------------------| 
A|------------15--------------12----17-14-17-14-----14-11-14-11-----| 
F|--------------15--------------12-------------13--------------10---| 
C|-----------------------------------------------14--------------11-| 
G|------------------------------------------------------------------| 
D|------------------------------------------------------------------| 
G|------------------------------------------------------------------| 

First Breakdown (1:33 - 1:53) 

Guitar 1,2,3 
D|--------------------------------------------------------------| 
A|--------------------------------------------------------------| 
F|--------------------------------------------------------------| 
C|--------------------------------------------------------------| 
G|--------------------------------------------------------------| 
G|--------------------------------------------------------------| 
D|--------------------------------------------------------------| 
G|--000-000-000-000-000-000---000---000-000-000-000-000-000-000-| 
P.M ... ... ... ... ... ...   ...   ... ... ... ... ... ... ... 
D|---------------------------------------|-------|-----------------| 
A|---------------------------------------|--1st--|--2nd time-------| 
F|---------------------------------------|-time--|-----------------| 
C|---------------------------------------|-------|-----------------| 
G|---------------------------------------|-------|-----------------| 
G|---------------------------------------|-------|-----------------| 
D|---------------------------------------|-------|-----------------| 
G|---000-000-000-000---000---000-000-000-|-00----|-000-000-000-000-| 
P.M  ... ... ... ...   ...   ... ... ...   ..      ... ... ... ... 
Chorus (1:53 - 2:11) 

Interlude (2:11 - 2:21) 

Guitar 1 

D|----------------------|-----------------------| 
A|---------5------------|---------6-------------| 
F|---5---5---5---5------|---6---6---6----6------| 
C|-9---9-------9----X4--|-10--10------10-----X4-| 
G|----------------------|-----------------------| 
D|----------------------|-----------------------| 
G|----------------------|-----------------------| 

Second Breakdown (2:21 - 2:30) 

D|---------------------------------------| 
A|---------------------------------------| 
F|---------------------------------------| 
C|---------------------------------------| X2 
G|---------------------------------------| 
D|-0-0000--00--00000---0000--0000--00000-| 
G|-0-0000--00--00000---0000--0000--00000-| 
   . ....  ..  .....   ....  ....  ..... 


Main Riff (2:30 - 2:40) 

Main Riff (Guitar 1 plays Guitar 2,3's part) (2:40 - 2:49) 

Outro (2:49 - 3:10) 

Guitar 1 
D|----------------------|-----------------------| 
A|---------5------------|---------6-------------| 
F|---5---5---5---5------|---6---6---6----6------| 
C|-9---9-------9----X4--|-10--10------10-----X4-| X2 
G|----------------------|-----------------------| 
D|----------------------|-----------------------| 
G|----------------------|-----------------------| 






************************************ 

| /   slide up 
| \   slide down 
| h   hammer-on 
| p   pull-off 
| ~   vibrato 
| +   harmonic 
| x   Mute note 
| b   Bend 
| pb  Pre-bend 
| br  Bend release 
| pbr Pre-bend release 
| brb Bend release bend 

************************************ 
share this page

See Also: