E-Chords
Chantal Kreviazuk

Today(Chords)

Chantal Kreviazuk

roll up this ad to continue

Key: Am
 
Intro:
e|--------------------------------------3---| 
B|------------------------------------------| 
G|--2--2------2--2-----------------------0--| 
D|-2--2---2--3--3---3---2--2----------------| 
A|---------------------3--3---3------2------| 
E|--------------------------------0h3-------| (2x)


Alternative intro: 

e|-----------------------------------3------| 
B|-----------------------------------0------| 
G|-2-2-2-----2-2-2----------------------0---| 
D|-2-2-2--2--3-3-3--3--2-2-2----------------| 
A|---------------------3-3-3--3----2--------| 
E|-------------------------------3----------| (2x)

Verse 1: Am The sun hits your face F Wide open space C Forest is bare G Cut everywhere Am There's no one around F Just the faces and clouds C G And the heart's that's breaking Refrain: Am F C G You're not exactly where you're supposed to be G Am F C G But tomorrow's done a lot for guarantees
Am F C Today's, today's, today's the greatest day C G Today's the greatest day (2x)
Verse 2: Am Chasing the ground F All twisted around C It's not what you've lost G It's what you've found Am Eyes of a child F It's getting harder to smile C G You're an angel of his dreams Refrain: Am F C G You tell yourself you're not quite what you seem G Am F C G But one more chance and you will be redeemed Chorus (3x)
share this page

See Also: