E-Chords
Chancho en Piedra

Y Aún Sin Voz Quería Expresar Con Gestos Y Aleteos... Algo(Chords)

Chancho en Piedra

Key: Em
e-----5---5--7--5-----5--5-----------5---5--7--5-----5--5---- 
B---8---8----------8--------5------8---8-----------8------5-- 
G------------------------------------------------------------ 
D------------------------------------------------------------ 
A------------------------------------------------------------ 
E------------------------------------------------------------ 


e-----5---5--8--7--5--7--8--7--5--7-|-10--8--7--8--10--8--7--8---/12-- 
B---8---8---------------------------|--------------------------------- 
G-----------------------------------|--------------------------------- 
D-----------------------------------|--------------------------------- 
A-----------------------------------|--------------------------------- 
E-----------------------------------|--------------------------------- 
Intro: Em Bm Raka kuaka Raka kuaka Em Bm Raka kuaka Raka kuaka Am Em Raka kuaka ka Bm Em Soy un pájaro raro Bm Em Chiquitito y desplumado Am Bm Quería ser gorrión cantor C D (E - D - E - D - E - D - E)* Mas no tenia pluma ni voz Bm Em No lo hagas me decían Bm Em Tu canto es destemplado Am Bm Y aun sin voz quería expresar C D (E - D - E - D - E - D - E)* Con gestos y aleteos algo Am Bm Canta pollito aun sin razón C Tu experiencia servirá Bm Para que se atrevan a hacerlo Am Bm Los que no tienen buena voz Am Bm pero igual quieren trinar Am Bm Para conversar de corazón Am Bm Cm7 Yo prefiero el cantar, cantar y cantar Bm Em Lara lara lalala lala la Bm Em Lara lara lalala lala la Am Bm Em Lara lara lala lala lara lala lara lala la Em Bm Raka kuaka Raka kuaka Em Bm Raka kuaka Raka kuaka Am Em Raka kuaka ka Bm Em Descubrí con sorpresa Bm Em que el gallinero oía Am Bm Se interesaban los parteros C D (E - D - E - D - E - D - E)* que escuchaban sin decir no! Bm Em Con toda la alegría Bm Em que me llegó al cantar Am Bm Retrocedieron los problemas C D (E - D - E - D - E - D - E)* que me limitaban la voz Am Bm Canta pollito aun sin razón C Tu experiencia servirá Bm Para que se atrevan a hacerlo Am Bm Los que no tienen buena voz Am Bm pero igual quieren trinar Am Bm Para conversar de corazón Am Bm Cm7 Yo prefiero el cantar, cantar y cantar Bm Em Lara lara lalala lala la Bm Em Lara lara lalala lala la Am Bm C D (E - D - E - D - E - D - E)* Lara lara lala lala lara lala lara lala la Em Bm Raka kuaka Raka kuaka Em Bm Raka kuaka Raka kuaka Am Em Raka kuaka ka Bm Em Era un pájaro raro Bm Em Chiquitito y desplumado Am Bm Y aun sin voz podía expresar C D Em Cm7 Con gestos y aleteos algo, algo, algo... Bm Em Lara lara lalala lala la...

roll up this ad to continue

share this page

See Also: