E-Chords
Chancho en Piedra

La Claridad A Nuestro Sol(Chords)

Chancho en Piedra

Key: D
E|----------------------------------------------------------------| 
B|----------------------------------------------------------------| 
G|----------------------------------------------------------------| 
D|--------------------7-------------11-7-9------------------------| 
A|--9-9-7-9-9-7-9-9-7---9-9-7-9-9-7-------------------------------| 
E|----------------------------------------------------------------|

E|----------------------------------------------------------------| 
B|----------------------------------------------------------------| 
G|----------------------------------------------------------------| 
D|--------------------7---11-9-7----------------------------------| 
A|--9-9-7-9-9-7-9-9-7--------------9-7-----------7--9-------------| 
E|--------------------------------------9-7--7-9------------------| 
Bm A Hoy me siento un poco nublado Bm A Y mi estrella se ha apagado Como puedo ver Bm A La alegría en nuestro cuerpo Bm A Sin entrar en tu sagrado santuario F#m E Bm C#m Dá la claridad a nuestro sol, que se nos va la vida F#m E Bm C#m C#m Bm Ya caminarás sin el temor de tropezar perdida Bm A Las caricias son las que mas me someten a tu calor Bm A Me quemo, mis cenizas aparecen en tu piel amor Bm A Corazón, mi alma en tu cuerpo ya se escondió Bm A Espero, hija del sol, que devuelvas a mi la emoción De escupir las mil penas

roll up this ad to continue

share this page

See Also: