E-Chords
Cesare Cremonini

La Nuova Stella Di Broadway(Chords)

Cesare Cremonini

roll up this ad to continue

Key: F
INTRO: 

Am             F              C  
e---------------------------------|---------------0----------------| 
B-------1-------------------------|-------1-3p1--------------------| 
G-----2-----2-----------2---------|-----2-------2------------------| 
D---2---------2-------3-----3-----|--------------------------------| 
A-0-----------------3---------3---|-3------------------------------| 
E-----------------1---------------|--------------------------------| 

e---------------------------------|--------------------------------| 
B-------1-------------------------|-------1-3p1-1------------------| 
G-----2-----2-----------2---------|-----0---------0----------------| 
D---2---------2-------3-----3-----|--------------------------------| 
A-0-----------------3---------3---|-3------------------------------| 
E-----------------1---------------|--------------------------------| 

Am F Lui era un business-man, con un'idea in testa, C lei, ballerina di jazz. Am F Leggeva William Blake, vicino a una finestra, C lui, beveva caffè. Am F Guardando quelle gambe muoversi pensò: 'E' una stella!'. C Pensava a Fred Astaire... Em Em7 Dm e chi non ha mai visto nascere una dea... Em Em7 F e chi non ha mai visto nascere una dea, Fm C non lo sa, che cos'è... DmG la felicità... G Am C Lui, garofano rosso e parole, una vecchia cabriolet... G Am C Lei, vestita come la Rogers, fulmini e saette, G E F lassù, nel cielo blu, il loro nome C G argento fra le stelle F C G Dm New York! New York! E' una scommessa d'amore, F C G Dm tu chiamami e ti vestirò, come una stella di Broadway. F C G Dm New York! New York! E' una scommessa d'amore, F C G tu chiamami e ti vestirò, come una stella di... Am F C (2x) Am F Lui si svegliò senza lei, nudo nella tempesta, C là, fuori Union Square. Am F Entrava luce al neon, dal vetro di una finestra. C L'odore del caffè. Am F Guardando quelle gambe muoversi pensò: 'E' una stella!'. C Pensava a Fred Astaire... Em Em7 F e chi non ha mai visto nascere una dea, Fm C non lo sa, che cos'è... DmG la felicità... G Am C Lui, garofano rosso e parole, una vecchia cabriolet... G Am C Lei, vestita come la Rogers, fulmini e saette, G E F lassù, nel cielo blu, il loro nome C G argento fra le stelle F C G Dm New York! New York! E' una scommessa d'amore, F C G Dm tu chiamami e ti vestirò, come una stella di Broadway. F C G Dm New York! New York! E' una scommessa d'amore, F C G tu chiamami e ti vestirò, come una stella di...
share this page

See Also: