E-Chords
Cat Power

He Turns Down(Chords)

Cat Power

roll up this ad to continue

Key: F
CHORDS : 

     F        F# 
e|---3---------4------------| 
B|---1---------2------------| 
G|---2---------3------------| 
D|---3---------4------------| 
A|--------------------------| 
E|--------------------------| 


PICKING PATTERNS : 

Picking Pattern for the Intro + Verses 
(p = right hand thumb; i = right hand index finger) 

e|:----------x-------x-----x--------:| 
B|:--------x-----x-------x----------:| 
G|:------x---------x---------x------:| 
D|:----xx-x-x--xx-x-x--xx-x-x-x-----:|   
A|:---------------------------------:| 
E|:---------------------------------:| 
       ppipipi ppipipi pippipip   


End the song on this picking pattern : 
(p = right hand thumb; i = right hand index finger) 

e|:------x------x-----------:| 
B|:-------x-x----x-x--------:| 
G|:-----x--x---x--x---------:| 
D|:----x------x-------------:| 
A|:-------------------------:| 
E|:-------------------------:| 
F F Have you ever seen the face F# You know the one I'm talking about F Have you ever been to that place F# You know I'm not supposed to say F Have you ever seen the face F# You know the one I'm talking about F Have you ever been to that place F# You know the one I'm not supposed to say F Holding on for something have you ever held on Holding on for someone F# Feels like holding on too long F Have you ever held on F# It's not me I am pretending F F# I'm not saved he turned me down F He turns down F# It is so nice to meet you F Who's gonna look at for you F# It's not me, I am pretending F F# I'm not saved he turned me down F He turns down Have you ever seen the face F# You know the one I'm talking about F Have you ever been to that place F# F You know the one I'm not supposed to say Holding on for something Have you ever held on Holding on for someone F# Feels like holding on too long F Have you ever held on F# It's not me I am pretending F F# I'm not saved he turned me down F He turns down F
share this page

See Also: