E-Chords
Carlos César

Pra Te Fazer Lembrar(Chords)

Carlos César

roll up this ad to continue

Key: F
Intro: 
  F                                C 

 
E|----------------------------------------------------| 
B|-------1-------1-------1---------------5-------5----| 
G|---2-------2-------2-------2---2---5-------5--------| 
D|----------------------------------------------------| 
A|---------------------------------3---3---3---3---3--| 
E|-1---1---1---1---1---1---1---1----------------------| 
 

 
                 C 
E|---------------3---| 
B|-----5-------5-5---| 
G|-5-------5-----5---| 
D|-------------------| 
A|---3---3---3---3---| 
E|-------------------| 
F Só quero desabafar C Am Dizer tudo que tenho pra falar B Pois bateu essa saudade Gm Am Que me invade e não me deixa calar F Mas só quero te dizer C Que antes de tudo Am Eu amei você F C E agora, não consigo esquecer F C Mas só pra te fazer lembrar Gm Dos momentoS que vivemos F C Do que foi bom de se passar F C De sentir aquele calor B Am Sentir tudo que foi bom Dm C Daquele nosso amor B Am Gm Doce feito bombom (Repete tudo)
share this page

See Also: