E-Chords
Caesars Palace

Black Heart(Chords)

Caesars Palace

Key: E
      

E5                              D5      G5 
My baby?s got a black   heart 
They says she's got a black heart 

A5 
She knows that it's my favourite colour 

E5                              D5      G5 
My baby has got a fast car 
She's got a really fast car 

A5 
She takes me anywhere I want to 

                E5              A5                      D5 
She says        'Boy don't you  let them bring you      down' 
She says        'Hey, you're the sweetest boy           around.' 

E5                              D5      G5 
Look in to her  black eyes, 
When I look in to her black eyes 

A5 
I know I'll never want no other 

E5                              D5      G5 
And when she takes her big hand 
And holds me tight against her 

A5 
We're just perfect for each other 

                E5              A5                      D5 
She says        'Boy don't you  let them bring you      down' 
She says        'Hey, you're the sweetest boy           around.' 
Solo 
e|--------7-----------------|--------10-7--------------|--------------| x2 
B|8-7-8-7--10-8-7-----------|8-7-8-7------8-7----------|-7---7---778-7|          
G|-----------------7----7-9-|-----------------7----7-9-|---7---7------|          
D|--------------------9-----|--------------------9-----|--------------|          
A|--------------------------|--------------------------|--------------|          
E|--------------------------|--------------------------|--------------| 

The last two notes of the solo extend into the Chorus. Hold each note. 
She says        ?boy don?t you let her bring you down? 
                e|--------------|--------------|--------------|--------------| 
                B|--------------|--------------|--------------|--------------| 
                G|9-------------|--------------|7-------------|--------------| 
                D|--------------|--------------|--------------|--------------| 
                A|--------------|--------------|--------------|--------------| 
                E|--------------|--------------|--------------|--------------| 
E5 A5 D5 She says 'Boy don't you let them bring you down' She says 'Hey, you're the sweetest boy around.' E5 D5 G5 My baby?s got a black heart They says she's got a black heart A5 E5 She knows that it's my favourite colour

roll up this ad to continue

share this page

See Also: