E-Chords
Byrdman

Pity Me(Chords)

Byrdman

roll up this ad to continue

Key: C
Tuning: Standard (EADGBe) 
 Intro: 

C G Dm F 

e|-8-5-------------3-0-5-3-0-3-0----------------3-0--------------------------| 
B|-----8-5-3-5-5-3---------------3-1-3-3-1--3/5------------------------------| 
G|---------------------------------------------------------------------------| 
D|---------------------------------------------------------------------------| 
A|---------------------------------------------------------------------------| 
E|---------------------------------------------------------------------------| 

e|-8-5-------------3-0-5-3-0-3-0---------------------------------------------| 
B|-----8-5-3-5-5-3---------------3-1-3-3-1--3/5------------------------------| 
G|---------------------------------------------------------------------------| 
D|---------------------------------------------------------------------------| 
A|---------------------------------------------------------------------------| 
E|---------------------------------------------------------------------------| 
C G It's getting old. Dm F C G Dm F The walks I take alone are starting to hurt my feet and burn my eyes. C G Dm F C I won't go home if you still don't want me to. C G Dm F I guess I'll sleep on the sidewalk C G Dm F C G Dm F as you parade around behind me, I will remember which way you went. C G Dm F C G Dm F I'll chase you down. I'll tell you I remember what you said. C G F She said, 'No one's gonna save you. C G F No one's gonna help you.' C G Dm F We don't have time! We have three more years until we're gone! C G Dm F We won't speak again. We won't talk again. C G Dm F We won't remember the time we spent in someone's basement, C G Dm F complaining the things we never do with other people. C G Dm F We are bitter. We are lonely. We are a knife. C G Dm F C We are a family that doesn't give a shit about their kids. C G Dm F C We are your eating disorder. We are your self indulgent rants. C G Dm F We are the words you whispered when you felt hopeless. C G F You said, 'No one's gonna save you. C G F No one's gonna help you.' C G F No one's gonna save you! C G F No one's gonna help you! ************************************ | / slide up | \ slide down | h hammer-on | p pull-off | ~ vibrato | + harmonic | x Mute note | b Bend | pb Pre-bend | br Bend release | pbr Pre-bend release | brb Bend release bend ************************************
share this page

See Also: