E-Chords
Bunkface

Hollywood Just Died(Chords)

Bunkface

roll up this ad to continue

Key: F#m


Intro 
e|-----------9----------------------9---------------| 
B|-----10---------10----10----10---------10----10---| 
G|--11----11---------11----11----11---------11------| 
D|--------------------------------------------------| 
A|--------------------------------------------------| 
E|--------------------------------------------------| 


e|-----------9----------------------9---------------| 
B|-----12---------12----12----12---------12----12---| 
G|--11----11---------11----11----11---------11------| 
D|--------------------------------------------------| 
A|--------------------------------------------------| 
E|--------------------------------------------------| 
verse 1 F#m A Bm she said it's just another lie F#m A Bm she said it's worth another try F#m A too scared to face the problem Bm A maybe it's time to solve them F#m A I cannot help but listen close D5 C#5 B5 A5 F#m as the world falls down on you
F#m goodbye my friend D A I'll see you on the other side Em F#m coz hollywood just died D A I'll see you on the other side Em F#m coz hollywood just died
verse 2 F#m A Bm he never tried to understand A why it's happening F#m A Bm he's living well but inside hell A hollywood F#m A how can you face the problem Bm you don't know how to solve them F#m A Bm I cannot help but listen close D5 C#5 B5 A5 F#m as the world falls down on you
share this page

See Also: