E-Chords
Bryan White

Thats Another Song(Chords)

Bryan White

roll up this ad to continue

Key: C
Capo on 3rd fret
         transcriped by Bryan Leitch 
         this my own interpretation of the song simply from what 
         I've heard and seen on his video. 
 
         (!) 
 
   |---------------3-----|-----5-3--------| 
   |---------0-0h1-----1-|-3--------1p0---| 
   |------0----------0---|--------------0-| 
   |---0-----------------|---4------------| 
   |--2------------------|-5-------3------| 
   |-3-------------------|----------------| 
 
   |---------------3-----|----------3-| 
   |---------0-0h1-----1-|-3---1----0-| 
   |------0----------0---|----------0-| 
   |---0-----------------|---4---2--0-| 
   |--2------------------|-5---3----2-| 
   |-3-------------------|----------3-|
I used to sing to (C)her, (D) it used to make her (G) smile. And she knew all the (C)words (D)for a (G)while. I sang (C)Love me Tender, (D)Always and forever. (G)Hold me baby (Em)all night (Am)long. I could go (C)on and on, (D) but that's another (G)song. Repeat 2nd portion of intro We used to go for (C)walks, (D) on a country road like (G) this. It's funny all the (C)small (D)things you (G)miss. Like (C)pennies on a train track, the (D)way you brushed your hair back. The (G)sun (Em)on your (Am)face. I wish I were (C)there today, (D) but that's another (G)place. Oh the (C)way I used to hold, and the (D)things I shoulda' told her. If (G)I could make this (Em)clock (Am)unwind. Back to when (C)she was mine, (D) but that's another (G)time. (C D G G) Oh the (C)way I used to hold, and the (D)things I shoulda' told her. If (G)I could make this (Em)clock (Am)unwind. Back to when (C)she was mine, (D) but that's another (G)time. I could go (C)on and on and on, (D) but that's another (G)song. The past is history, the future is a mystery, The present is a gift to be used wisely. Bryan Leitch
share this page

See Also: