Bruno Sene

Eu Me Rendo(Chords)

Bruno Sene

Key: Dm

roll up this ad to continue

	        
Intro: Dm F C Bb 

 
E|-------------------------------| 
A|-------------------------------| 
D|-------------------------------| 
G|-2-------2-------2----------5--| 
B|----6-6-----6-6-----6-6-5-3----| 
E|-------------------------------| 
 

 
E|-------------------------------| 
A|-------------------------------| 
D|-------------------------------| 
G|-2-------2-------2----------5--| 
B|----6-6-----6-6-----6-6-5-3----| 
E|-------------------------------| 
 

 
E|-------------------------------| 
A|-------------------------------| 
D|--5------5------5--------------| 
G|----------------------------5--| 
B|----6-6-----6-6-----6-6-5-3----| 
E|-------------------------------| 
 

 
E|-------------------------------| 
A|-------------------------------| 
D|-------------------------------| 
G|-3-------3-------3----------5--| 
B|----6-6-----6-6-----6-6-5-3----| 
E|-------------------------------| 
Dm F Eis me aqui, prostrado outra vez C Bb Pra tudo entregar,pra tudo entregar Dm F Leva-me perto de ti senhor C Bb Anseio por ti,anseio por ti Dm F C Bb Eu me rendo Dm F Enche-me ,da graša e do teu amor C Bb Sacia meu ser ,sacia meu ser Dm F Abraša-me, ouve o meu clamor C Bb Fala pra mim, fala pra mim Dm F Eu me rendo, eu me rendo Bb Gm Pra conhecer-te mais, pra conhecer-te mais Bb F C Vento de poder, sopra em meu viver Bb F C Faz teu querer, faz teu querer, em mim Bb F C Como um vendaval sobrenatural Bb F C Faz teu querer, faz teu querer, em mim
E|-------------------------------| 
A|-------------------------------| 
D|-------------------------------| 
G|-2-------2-------2----------5--| 
B|----6-6-----6-6-----6-6-5-3----| 
E|-------------------------------| 
 

 
E|-------------------------------| 
A|-------------------------------| 
D|-------------------------------| 
G|-2-------2-------2------2---5--| 
B|----5-5-----5-5-----5-5----5---| 
E|-------------------------------| 
 

 
E|-------------------------------| 
A|-------------------------------| 
D|-------------------------------| 
G|-3-------3-------3----------5--| 
B|----6-6-----6-6-----6-6-5-3----| 
E|-------------------------------| 
 

E|-------------------------------| 
A|-------------------------------| 
D|-------------------------------| 
G|-3-------3-------3----------5--| 
B|----6-6-----6-6-----6-6-5-3----| 
E|-------------------------------|

Written by Hillsong

share this page

See Also: