E-Chords
Bruno Mars

The Lazy Song(Chords)

Bruno Mars

Watch the video lesson
Key: B
		  

B F# E Today I don't feel like doing anything B F# E I just wanna lay in my bed B F# Don't feel like picking up my phone E So leave a message at the tone B D#7 E Cause today I swear I'm not doing anything
B F# Uh, I'm gonna kick my feet up and stare at the fan E Turn the TV on, Throw my hand in my pants B F# E Nobody's gonna tell me I can't, nah B F# I'll be lying on the couch just chillin in my snuggie E Click to MTV so they can teach me how to dougie B F# E Cause in my castle I'm the freakin man C#m Oh Oh, yes I said it D#m I said it E F# I said it cause I can
B F# E Today I don't feel like doing anything B F# E I just wanna lay in my bed B F# Don't feel like picking up my phone E So leave a message at the tone B D#7 E Cause today I swear I'm not doing anything
Nothing at all B F# Ooh hoo ooh hoo E Hoo ooh ooh, Nothing at all B F# Ooh hoo ooh hoo E Hoo ooh ooh B F# Tomorrow I wake up, do some P90X E Meet a really nice girl have some really nice sexy B F# E And she's gonna scream out, 'this is great' B F# I might mess around and get my college degree E I bet my old man will be so proud of me B F# E I'm sorry pops you just have to wait C#m Oh Oh, yes I said it D#m I said it E F# I said it cause I can
B F# E Today I don't feel like doing anything B F# E I just wanna lay in my bed B F# Don't feel like picking up my phone E So leave a message at the tone B D#7 E Cause today I swear I'm not doing anything
    B          F#             E  
e|---------------------------------------------------|  
B|----7--x--7----11--x--11------9--x--9---9--x--9----|  
G|----8--x--8----11--x--11------9--x--9---9--x--9----|  
D|----9--x--9----11--x--11------9--x--9---9--x--9----|  
A|-------------9--------------7----------------------|  
E|--7------------------------------------------------|  

    B           D#             E  
e|----------------------------------------------------|  
B|----7--x--7-----8--x--8--------9--x--9---9--x--9----|  
G|----8--x--8-----8--x--8--------9--x--9---9--x--9----|  
D|----9--x--9-----8--x--8--------9--x--9---9--x--9----|  
A|--------------6--------------7----------------------|  
E|--7-------------------------------------------------|  

   C#m          D#m         E            F#  
e|----------------------------------------------------|  
B|----5--x--5-----7--x--7-----9--x--9----11-----------|  
G|----6--x--6-----8--x--8-----9--x--9----11-----------|  
D|----6--x--6-----8--x--8-----9--x--9----11-----------|  
A|--4-----------6-----------7------------9------------|  
E|----------------------------------------------------|  

C#m F# No I ain't gonna comb my hair G#m7 Cause I ain't going anywhere C#m F# G#m7 No no no no no no no no nooo C#m F# I'll just strut in my birthday suit G#m7 And let everything hang loose C#m F# G#m7 Yeah yeah yeah yeah yeah yeah yeah yeah yeahhh
   C#m          F#           G#m7     Final: G#m7  
e|--------------------------------------|---------------|  
B|----5--x--5-----2--x--2------4--x--4--|----4----------|  
G|----6--x--6-----3--x--3------4--x--4--|----4----------|  
D|----6--x--6-----4--x--4------4--x--4--|----4----------|  
A|--4-----------------------------------|---------------|  
E|--------------2------------4----------|----4----------|  

B F# E Today I don't feel like doing anything B F# E I just wanna lay in my bed B F# Don't feel like picking up my phone E So leave a message at the tone B D#7 E Cause today I swear I'm not doing anything

roll up this ad to continue

share this page

See Also: