E-Chords
Brooks And Dunn

That Ain't No Way To Go(Chords)

Brooks And Dunn

Key: D
Fill 1           Fill 2       Fill 3*              Fill 4 

e|--------------|------------|-------------------|---------------------------| 
B|--------------|------------|-------2-3p2---3---|---------------------------| 
G|---1h2--------|---1h2-0----|---2h4-------4-2---|---------------------------| 
D|-------4------|------------|-------------------|---------------------------| 
A|--------------|------------|-------------------|-------0h2-4---------------| 
E|--------------|------------|-------------------|---0h2---------------------| 
* The fill normally ends with just the single '2' note, but I like to play the D chord since to sound fuller 

Fill 5 

e|---3-----2-----0---------------0-------------------------------------------| 
B|-----3-----3-------3-----3-0-----------------------------------------------| 
G|-------0-----0---0-----2---------------------------------------------------| 
D|---------------------0-------0---0-----------------------------------------| 
A|---------------------------------------------------------------------------| 
E|---------------------------------------------------------------------------| 

Chords 

   A   F#m  G  A6sus4 E  Esus4  D/F# C#m7 D 
e|----------3-------------------------4---2----------------------------------| 
B|-2---2----3----3---------------3----5---3----------------------------------| 
G|-2---2----0----2----1----2-----2----4---2----------------------------------| 
D|-2---4----0----4----2----2-----0----6--------------------------------------| 
A|-----4----2----0----2----2-----0----4--------------------------------------| 
E|-----2----3---------0----0-----2-------------------------------------------| 
Intro: A (Fill 1) F#m (Fill 2) G (Fill 3) A A6sus4 A Lipstick letters across the mirror this morning F#m Said, 'Goodbye, baby.' You left with no warning G D/F# E Esus4 E Like a thief in the night, you ran away with my heart (Fill 4) A A6sus4 A I can't believe my eyes, must be a bad dream F#m You always said we had a good thing G D/F# E Esus4 E You never once let on we were falling apart (Fill 4)
D E C#m7 D That ain't no way to go. Girl, it just ain't right A E D/F# A G D/F# E Esus4 E Don't you think that I deserve to hear you say goodbye D E C#m7 D That ain't no way to go. Was it all a lie A D A E After all this time, that ain't no way to go
(Fill 5) A (Fill 1) F#m (Fill 2) G (Fill 3) verse 2: A A6sus4 A Getting nowhere, I'm tired of thinking F#m Guess I'll do a little wishful drinkin G D/F# E Esus4 E And make a whiskey wish upon a star (Fill 4) A A6sus4 A Train whistle blowing down the tracks F#m Lonesome sound says she ain't coming back G D/F# E Esus4 E It's such a cold blow from out of the dark (Fill 4)
D E C#m7 D That ain't no way to go. Girl, it just ain't right A E D/F# A G D/F# E Esus4 E Don't you think that I deserve to hear you say goodbye D E C#m7 D That ain't no way to go. Was it all a lie A D A E G D/F# G A After all this time, that ain't no way to go

roll up this ad to continue

share this page

See Also: