E-Chords
Bordon 4

Luna No Te Vallas(Chords)

Bordon 4

Key: Gm
Luna no te vallas  
        F          Bb          F       Bb  Cm 
-----------------/----/---------------/-/----- 
---1-1-3-4-3-1--/3----/-1-1-3-4-3-1- /3/4-4-4-3-1 
----------------/--3-0/--------------/-/------- 
-3--------------/----/-3------------/-/-------            
    B         Cm       Gm 
----------/---------/-------- 
-3-3-3-1--/-1-1-1---/--------                 
---------3/------3-2/-3-2-0--             
----------/---------/--------
Gm D7 De quien eres luna, que vienes tan blanca Gm Quiero ir con tigo, pero esta tan alta Gm - G Cm Baja de una vez, dime que me quieres Gm D7 - Gm Como cada noche, luna de quien eres Gm D7 A donde vas luna, cuando llega el alba Gm No me dejes solo, ven a mi almohada Gm ? G Cm Háblame de ti, cuéntame tus sueños Gm D7 - Gm A donde vas luna, cuando yo me duermo Estribillo Cm Bb (Luna no te vallas que, sin ti me muero D7 Gm Que la noche es larga, luna sin tus besos Cm Bb Luna no te vallas, que me desespero D7 Gm Y me enfado luna, cuando no te veo) Bis Punteo inicial Gm D7 A donde vas luna, cuando llega el alba Gm No me dejes solo, ven a mi almohada Gm ? G Cm Háblame de ti, cuéntame tus sueños Gm D7 - Gm A donde vas luna, cuando yo me duermo. Estribillo 3 veces hasta apagarse

roll up this ad to continue

share this page

See Also: