E-Chords
Bondage Fairies

Nv4dll(Chords)

Bondage Fairies

Key: A#m
Intro 1 
--------------------------------------------------------------------| 
--------------------------------------------------------------------| 
-----3--------3-------------------------6-------6-------------------| 
-----------------------4-------4------------------------6-------6---| x2 
-1-1----1-1-1---1------------------4-4----4-4-4---4-----------------| 
------------------2-2----2-2-2---2------------------4-4---4-4-4---4-| 


Intro 2 (I tabbed it lower, because when you play lower on acoustic it sounds better) 

--------------------------------------------------------------------| 
--------------------------------------------------------------------| 
--------------------------------------------------------------------| 
-4-3---3---3-4-3--4-3---3---3-4-3----3-4-3-6-4-3-4--8-6-4-6-4-3-4-3-|x2 
-----4---4-----------4---4---------4--------------------------------| 
--------------------------------------------------------------------| 
A#m F# It started like a plauge C# G# a multi colored nightmare A#m F# one million eighty posts C# G# but still theres no solution A#m F# we have our online needs C# G# just like a drug addiction A#m F# i guess we'll never know C# G# why we get nv4 A#m F# display driver has stopped working normally C# G# A#m somethings stuck in a loop of infinity F# C# G# O-o-o-oh A#m F# save your work and reboot the system C# G# A#m to restore full display functionallaty F# C# G# O-o-o-oh A#m F# we have our online needs C# G# just like a drug addiction A#m F# i guess we'll never know C# G# why we get nv4 A#m F# display driver has stopped working normally C# G# A#m somethings stuck in a loop of infinity F# C# G# O-o-o-oh A#m F# save your work and reboot the system C# G# A#m to restore full display functionallaty F# C# G# O-o-o-oh

roll up this ad to continue

share this page

See Also: