E-Chords
Bloque Depresivo

Canción De Las Simples Cosas(Chords)

Bloque Depresivo

Key: Em
Em 

     e|-----0-0--------------------0-0---------------|      
     B|-----0-0--------------------0-0---------------|      
     G|-----0-0--------0---0-------0-0--------0---0--|      
     D|-----2---2--2^4---4---------2---2--2^4---4----|      
     A|-----2----------------------2-----------------|      
     E|--0----------------------0--------------------|      
*El intro se repite en todos los Em durante la canción. **Los Cambios en los Am son solo arreglos que puedes obviar y suena bien igual. Em Uno se despide insensiblemente Am Am/C de pequeñas cosas Am Am/G lo mismo que un árbol B7 que en tiempo de otoño Em Se queda sin hojas hojas Am Al fin la tristeza F es la muerte lenta Em de las simples cosas, Am esas cosas simples F# que quedan doliendo B7 En el corazón Em Uno vuelve siempre, a lo viejos sitios Am Am/C Am donde amó la vida, y entonces comprende B7 Em como están de ausentes, las cosas queridas Am Por eso muchacha F no partas ahora Em soñando el regreso, Am que el amor es simple F# y a las cosas simples Em las devora el tiempo B7 Demórate aquí en la luz mayor Em de este mediodía, B7 donde encontrarás con el pan al sol Em la mesa tendida Am Por eso muchacha F no partas ahora Em soñando el regreso, Am que el amor es simple F# y a las cosas simples Em las devora el tiempo C B7 Em Uno vuelve siempre, a los viejos sitios, donde amo... la viiida Final:
     e|-------------7--6--7---12--11--12----------14---||      
     B|----8--7--8-------------------------------------||      
     G|------------------------------------------------||      
     D|------------------------------------------------||      
     A|------------------------------------------------||      
     E|------------------------------------------------||      
.

roll up this ad to continue

share this page

See Also: