E-Chords
Bloque Depresivo

Cada Domingo Las Doce(Chords)

Bloque Depresivo

Key: D
D                      Gm 
  Cuando tengas que partir 

quiero que sepas 
                       G7 
que estaré pensando en ti 
            Cm 
todos mis días 
                                Gm 
vivirás en mi alegría y mi tristeza 
                  D#            D 
reinaras en el altar del alma mía 
                             Gm 
al partir me dejaras tus agonías 
G7                              Cm 
y en la casa que sin ti quedo muy triste 


                                Gm 
nadie ocupara el lugar que tu tenias 
D#                 D               Gm 
porque se murió mi amor cuando te fuiste (bis) 

Cm 
Cada domingo a las doce saldré a la ventana 
Gm 
para esperarte como antes después de la misa 
D 
y en la esquina solitaria voy a ver a mi alma (pausa) 
                 Gm  D               Gm 
que espera tus pasos buscando mis brazos (pausa) 

y sin tu sonrisa 
|--------------5-6---| 
|------------8-------| 
|----------7---------| 
|---5--7-8-----------| 
|-5------------------| 
|--------------------|
Gm se ira el sol de la mañana D te lloraran las campanas Gm D cada domingo a las doce después Gm después de la misa
|-11-11-13-11-11h13p11-10--| 
|-13-13-13-13-13-------11--| 
|--------------------------| 
|--------------------------| 
|--------------------------| 
|--------------------------| 


|--10-10-10-10-11-10-10--8-10---10---10----| 
|--12-12-12-12-11-11-11-10-----------------| 
|------------------------------------------| 
|------------------------------------------| 
|------------------------------------------| 
|----------------------------10----10---10-| 
Cm Cada domingo a las doce saldré a la ventana Gm para esperarte como antes después de la misa D y en la esquina solitaria voy a ver a mi alma (pausa) Gm D Gm que espera tus pasos buscando mis brazos (pausa) y sin tu sonrisa
|--------------5-6---| 
|------------8-------| 
|----------7---------| 
|---5--7-8-----------| 
|-5------------------| 
|--------------------| 
Gm se ira el sol de la mañana D te lloraran las campanas Gm D cada domingo a las doce después Gm después de la misa FINAL Cuando tengas que partir....
             quiero que sepas... 
|-------------------------------0--| 
|-------------------------------1--| 
|-------------------------------2--| 
|-------------5--7-8-7-5-4-5----2--| 
|-5-5---------------------------0--| 
|-------------------------------0--|

roll up this ad to continue

share this page

See Also: