E-Chords
Blluty

Dela(Chords)

Blluty

Key: C
Intro 

E|---------------------------| 
B|---------------------------| 
G|---0--0h2-0----------------| 
D|--2--x---x-----------------| 
A|-3--x----------------------| 
E|---------------------------| 

E|---------------------------| 
B|---------------------------| 
G|---0--2h4--0---------------| 
D|--2--x----x----------------| 
A|-0--x----------------------| 
E|---------------------------| 

E|---------------------------| 
B|-------1-0-----------------| 
G|---2-------2-0-------------| 
D|--1--x---------2-0---------| 
A|-2--x----------------------| 
E|---------------------------| 

E|---------------------------| 
B|---------------------------| 
G|----0----------------------| 
D|---2-2---0-----------------| 
A|--2---2-2------------------| 
E|-0-----3-------------------| 

E|---------------------------| 
B|---------------------------| 
G|---0--0h2-0----------------| 
D|--2--x---x-----------------| 
A|-3--x----------------------| 
E|---------------------------| 

E|---------------------------| 
B|---------------------------| 
G|---0--2h4--0---------------| 
D|--2--x----x----------------| 
A|-0--x----------------------| 
E|---------------------------| 

E|---------------------------| 
B|-------1-0-----------------| 
G|---2-------2-0-------------| 
D|--1--x---------2-0---------| 
A|-2--x----------------------| 
E|---------------------------| 

E|---------------------------| 
B|---------------------------| 
G|----0----------------------| 
D|---2-2---0-----------------| 
A|--2---2-2------------------| 
E|-0-----3-------------------| 

Verse 1:

C7M Um sorriso esplandecente Am7 Me vira a cabeça e me deixa contente B7 Cê sabe o meu ponto fraco Em G Me toca na alma sem nenhum contato C7M Sozinho, eu me ponho a pensar Am7 Que graça tem a vida se eu não te amar B7 Em Eu sei, eu fui muito meloso falando de amor G Só pra te conquistar C7M Vou te confessar uma coisa Am7 Pra isso primeiro vai me prometer B7 Que não vai rir da minha cara Em G Quando o coração eu abrir pra você C7M Às vezes eu me sinto sozinho Am7 O que me preenche é o teu jeito de ser B7 Me deixando em outro mundo Em G Esquecendo da vida menos de você
E|-0----------------| 
B|---1--0-----------| 
G|---0--0--2--------| 
D|--2--2--2---------| 
A|-3--3--3----------| 
E|------------------| 

E|------------------| 
B|-1--3--1--0-------| 
G|---0--0-----------| 
D|--2--2--2---------| 
A|-0--0--0----------| 
E|------------------| 

E|------------------| 
B|-----1-0----------| 
G|---2-----2-0------| 
D|--1----------2-0--| 
A|-2----------------| 
E|------------------| 

E|------------------| 
B|------------------| 
G|----0-----0-------| 
D|---2-2---0--------| 
A|--2---2-2---------| 
E|-0-----3----------| 
C7M Sabe Am7 Tô querendo você B7 Não consigo esconder Em Se liga no meu olhar G No meu jeito de ser C7M Quando eu vejo você Am7 No meu peito, um sorriso B7 Minha boca, sentindo Em Seus dentes nos meus G Minha boca provou o paraíso C7M Am Tô querendo você B7 Não consigo esconder Em Se liga no meu olhar G No meu jeito de ser C7M Quando eu vejo você Am No meu rosto, um sorriso B7 Minha cama, pedindo Em Uma noite de amor G Com você meu paraíso
repete a intro
E|---------------------------| 
B|---------------------------| 
G|---0--0h2--0---------------| 
D|--2--x---x-----------------| 
A|-3--x----------------------| 
E|---------------------------| 

E|---------------------------| 
B|---------------------------| 
G|---0--2h4--0---------------| 
D|--2--x----x----------------| 
A|-0--x----------------------| 
E|---------------------------| 

E|---------------------------| 
B|-------1-0-----------------| 
G|---2-------2-0-------------| 
D|--1--x---------2-0---------| 
A|-2--x----------------------| 
E|---------------------------| 

E|---------------------------| 
B|---------------------------| 
G|----0----------------------| 
D|---2-2---0-----------------| 
A|--2---2-2------------------| 
E|-0-----3-------------------| 

E|---------------------------| 
B|---------------------------| 
G|---0--0h2-0----------------| 
D|--2--x---x-----------------| 
A|-3--x----------------------| 
E|---------------------------| 

E|---------------------------| 
B|---------------------------| 
G|---0--2h4--0---------------| 
D|--2--x----x----------------| 
A|-0--x----------------------| 
E|---------------------------| 

E|---------------------------| 
B|-------1-0-----------------| 
G|---2-------2-0-------------| 
D|--1--x---------2-0---------| 
A|-2--x----------------------| 
E|---------------------------| 

E|---------------------------| 
B|---------------------------| 
G|----0----------------------| 
D|---2-2---0-----------------| 
A|--2---2-2------------------| 
E|-0-----3-------------------| 

Solo 

E|---7-6-4-2----7-6-9-11-------| 
B|--7----------7---------------| 
G|-7----------7----------------| 
D|-----------------------------| 
A|-----------------------------| 
E|-----------------------------| 

E|-9-11-9-7-6-4-2-2---6-7-6-4-2| 
B|-----------------------------| 
G|-----------------------------| 
D|-----------------------------| 
A|-----------------------------| 
E|-----------------------------| 

E|---7-6-4-2----7-6-9-11-------| 
B|--7----------7---------------| 
G|-7----------7----------------| 
D|-----------------------------| 
A|-----------------------------| 
E|-----------------------------| 

E|-9-11-9-7-6-4-2-2---6-7-6-4-2| 
B|-----------------------------| 
G|-----------------------------| 
D|-----------------------------| 
A|-----------------------------| 
E|-----------------------------| 

Verse 2:

C7M Ela tem os olhos tão lindos Am7 Ela é tão inteligente é bom vê-la sorrindo B7 Tem super poderes bizarros Em G Com sua presença deixo de ser chato C7M Seu beijo é muito da hora Am7 Seu toque me mata, vive, me conforta B7 Teu jeito exclusivo me faz Em Te querer muito mais G Passar noites em claros pensando em ti
Passagem 

E|-----1-0---------------| 
B|---------2-------------| 
G|---0------0------------| 
D|--2--------------------| 
A|-3---------------------| 
E|-----------------------| 

E|-----------------------| 
B|-----------------------| 
G|---0--4-2-0-2----------| 
D|--2--------------------| 
A|-0---------------------| 
E|-----------------------| 

E|-----------------------| 
B|-----------------------| 
G|---2--2-0---0----------| 
D|--1-------2------------| 
A|-2---------------------| 
E|-----------------------| 

E|-----------------------| 
B|-----------------------| 
G|----0------------------| 
D|---2-2---0-------------| 
A|--2---2-2--------------| 
E|-0-----3---------------| (2x)
C7M Am7 Dela, invulgar, tão uva B7 Brilho roubado da lua Em Tanto mexe comigo G C7M Ela tem seus princípios Am7 Ela quer muito mais B7 Que um simples rapaz Em Ela merece o universo G Sou tão diminuto, tento ser completo
C7M Am7 Tô querendo você B7 Não consigo esconder Em Se liga no meu olhar G No meu jeito de ser C7M Quando eu vejo você Am7 No meu peito, um sorriso B7 Minha boca, sentindo Em Seus dentes nos meus G Minha boca provou o paraíso C7M Am Tô querendo você B7 Não consigo esconder Em Se liga no meu olhar G No meu jeito de ser C7M Quando eu vejo você Am No meu rosto, um sorriso B7 Minha cama, pedindo Em Uma noite de amor G Com você meu paraíso

roll up this ad to continue

share this page

See Also: