E-Chords
Black Hearts

Silent Hate Dreamer(Chords)

Black Hearts

roll up this ad to continue

Key: G
 Silent hate dreamer       black hearts    eternity favors 

No one can?t say this is wrong cause I wrote it 

Riley Galloway 

Legend: 
X: dead note 
 : whammy bar 
~: hold note  beat longer 
h: hammer-on the next note 
p: pull-off the next note 

Intro heavy and distorted 
Guitar 2 
|--x---xx|--x----xx|\ 
|--x---xx|--x----xx| | 
|--x---xx|--x----xx| | 
|--x---xx|--x----xx| | repeat until guitar 1 gets to verse 
|xx?-xx--|xx---xx--| | 
|xx--xx--|xx---xx--|/ 

guitar 1  start 00:16 
|12-10-7-5-3~0~|5-3-0------|--------- |-----------| 
|--------------|-----3-0~--|0---------|-----------| 
|--------------|---------2~|-2-0------|-----------| repeat but palm  
|--------------|-----------|----2-0~--|0----------| mute 
|--------------|-----------|--------2~|-2-0-------| 
|--------------|-----------|----------|----3-0~h2~| 


verse       soft music 

 G	  E        D	     C 
|--3~~3-3|--0~~0-0|--2~~2-2|--------| 
|--------|--------|-3------|--1~~1-1| 
|--------|--------|--------|-0------| 
|--------|--------|0--0?-0-|--------|guitar 1 plays tab while gtr. 2  
|-2------|-2------|--------|3--3?-3-| plays chords 
|3?-3-?3-|0--0--0-|--------|--------| 

G	  E        D	     C 
|--3~~3-3|--0~~0-0|--2~~2-2|--------| 
|--------|--------|-3------|--1~~1-1| 
|--------|--------|--------|-0------| 
|--------|--------|0--0?-0-|--------|  
|-2------|-2------|--------|3--3?-3-|  
|3?-3-?3-|0--0--0-|--------|--------| 
                                                                           
Chorus heavy and distorted 
guitar 2 plays intro until guitar 1 gets to verse 
guitar 1 
|---------|---------|---------|--------| 
|---------|---------|---------|--------| 
|---------|---------|---------|--------|   repeat 3 times 
|---------|---------|---------|--------| 
|9~~~~~9-7|5~~~~~5-4|2~~~~~2-5|4_______| 
|7~~~~~7-5|3~~~~~3-2|0~~~~~0-3|2_______| 

verse: play up there 

bridge: 
guitar 2 
|----------------|---------------|--------------| 
|----------------|---------------|--------------| 
|----------------|---------------|--------------| 
|----------------|---------------|--------------|  repeat 
|12-12-12~~~12-11|10-10-10~~~10-9|8-7-6-5-4-3-2~| 
|10-10-10~~~10- 9| 8- 8- 8~~~ 8-7|6-5-4-3-2-1-0~| 


guitar 1 
|---4?7-6-4-2-0| 
|2?2-----------| 
|--------------|repeat 
|--------------| 
|--------------| 
|--------------| 


|-2-5-4-2-0-| 
|0-0-------4| 
|-----------| 
|-----------| repeat 
|-----------| 
|-----------| 


|-4?7-6-4-2-0| 
|2?2---------| 
|------------|repeat 
|------------| 
|------------| 
|------------| 

solo: gtr.2 does power chords while gtr. 1 does solo 

A5 
|15--------| 
|- 13~~~~~~| 
|----------| 
|----------| 
|----------| 
|----------| 

G#5 
|--------| 
|9~~~~~~~| 
|--------| 
|--------| 
|--------| 
|--------| 

G#5 
|----------------| 
|9-12~~h13p12-9-8| 
|----------------| 
|----------------| 
|----------------| 
|----------------| 

E5 
|--------| 
|5       | 
|--------| 
|--------| 
|--------| 
|--------| 

E6 
|--------| 
|--------| 
|--------| 
|--------| 
|--------| 
|0~~~~~~2| 


C#5 
|--------------| 
|--------------| 
|--------------| 
|--------------| 
|-0h2p1h2p1h2p1| 
|3-------------| 

N.C 
|---------| 
|---------| 
|---------| 
|---------| 
|---------| 
|18\\\\\\6| 


|--------| 
|--------| 
|--------| 
|--------| 
|--------| 
|0~~~~~~~| 

|12-12-12-12-12-12-12-12| 
|-----------------------| 
|-----------------------| 
|-----------------------| 
|-----------------------| 
|-----------------------| 

|--x---xx|--x----xx|\  both guitars 
|--x---xx|--x----xx| | repeat 5 times 
|--x---xx|--x----xx| |  
|--x---xx|--x----xx| | fade out with  
|xx?-xx--|xx---xx--| | volume knob 
|xx--xx--|xx---xx--|/ 
share this page

See Also: