E-Chords
Black Hearts

Permanent Destruction(Chords)

Black Hearts

roll up this ad to continue

Key: E
Permanent Destruction- Black Hearts 
I know this is the real thing because I wrote it. 
tuning: standard: ( E-A-D-G-B-E-e) 
Riley Galloway 
this is my first tab but I think I got the font right 
---------------------------------------------------- 
Intro: use distortion, but don't go crazy with it 
----------------|--------------| 
----------------|---------0----| 
0-0-0-0-0-0---0-|-0-0-0---0--0-| 
------0---0-0-0-|0----0-0--0-0-| 
----------------|--------------| 
----------------|--------------| 

----------------|--------------| 
----------------|--------------| 
----------------|--------------| 
----------------|---------3----| 
3-3-3-3-3-3---3-|-3-3-3---3--3-| 
------3---3-3-3-|3----3-3--3-3-| 


----------------|--------------| 
----------------|--------------| 
----------------|--------------| 
----------------|---------0----| 
0-0-0-0-0-0---0-|-0-0-0---0--0-| 
------0---0-0-0-|0----0-0--0-0-| 

0---------------|3-------------| 
----------------|--------------| 
----------------|--------------| 
----------------|--------------| 
----------------|--------------| 
----------------|--------------| 


----------------|--------------| 
----------------|--------------| 
0-0-0-0-0-0---0-|--------------| 
------0---0-0-0-|--------------| 
----------------|--------------| 
----------------|--------------| 
                                 
----------------| 
----------------| 
----------------| 
----------------| 
3-3-3-3-3-3---3-| 
------3---3-3-3-| 


--------------| 
--------------| 
--------------| 
--------------| 
--------------| 
--------------| 


----------------|--------------| 
----------------|--------------| 
----------------|--------------| 
----------------|--------------| 
0-0-0-0-0-0---0-|--------------| 
------0---0-0-0-|--------------| 

pre-verse: turn on Chorus pedal 
----------------| 
----------------| 
2-2-2-2-2-2-2-2-| 
----------------| 
----------------| 
----------------| 

----------------| 
----------------| 
0-0-0-0-0-0-0-0-| 
----------------| 
----------------| 
----------------| 


----------------|--------------| 
----------------|--------------| 
----------------|--------------| 
3-3-3-3-3-3-3-3-|2-------------| 
----------------|--------------| 
----------------|--------------| 

-2-3-2-3-| 
0-0-0-0--| 
---------| 
---------|x3 
---------| 
---------| 
             Chorus 
5---7-5-3-2-|-2-3-2-3-| 
------------|0-0-0-0--| 
------------|---------| 
------------|---------| 
------------|---------| 
------------|---------| 

-0--------------| 
0---------------| 
----------------| 
----------------| 
----------------| 
----------------| 



verse 
  ---------------|--------| 
|.---------------|--------| 
  0-0-0-0-0-0-0--|-2------| 
|.--------------4|4-4-----| 
  ---------------|--------| 
  ---------------|--------| 

----------------|--------| 
----------------|--------| 
----------------|-4------| 
2-2-2-2-2-2-2-1-|1-1-----| 
----------------|--------| 
----------------|--------| 


---------------|--------| 
---------------|--------| 
---------------|--------| 
0-0-0-0-0-0-0--|-2------| 
--------------4|4-4-----| 
---------------|--------| 


----------------|---------| 
----------------|--------.| 
----------------|---------| 
----------------|--------.| 
3-3-3-3-3-3-3-3-|2---2----| 
----------------|---------| 


-----------|| 
---1-------|| 
2-2-----0-2|| 
-------2---|| end 
-----------|| 
-----------|| 
share this page

See Also: