Billie Holiday

I'll Look Around(Chords)

Billie Holiday

Key: C

roll up this ad to continue

	        Intro 
  
E|---------------10-10/12-15--------------15-------15-15-13-15-----| 
B|---------10-13-------------12~~---15/17----15/17-----------------| 
G|----9-12-----------------------------------------------------12~-| 
D|-10--------------------------------------------------------------| 
A|-----------------------------------------------------------------| 
E|-----------------------------------------------------------------|

E|-12-12\7--7-7/10~----------8-------------------------------------| 
B|---------------------10-10---10-----------------8----------------| 
G|--------------------------------9-h7h9---------------------------| 
D|---------------------------------------10-7-8-9------------------| 
A|--------------------------------------------------10-------------| 
E|-------------------------------------------------------11/12-8---|
C Am I'll look around F Dm Until I've found Em F C Someone who laughs like you B I know somewhere Am F Spring must fill the air Am With sweetness just as rare G As the flower Dm That you gave me to wear C Am I look around F Dm And when I've found Em F C Someone who sighs like you Dm Am I'll know this love F I'm dreaming of Am G Won't be the old love F C I always knew

Written by George Cory/Douglass Cross

See Also: