E-Chords
Big & Rich

Radio(Chords)

Big & Rich

roll up this ad to continue

Key: E
Tabbed by: jimigator 
Email: [email protected] 

Tuning: Standard    This is the Main Lead Riff 
  
e|------------------------------------------------------------------------| 
B|--9--10--12--10b--9-----7--8--10--8b-7----------------------------------| 
G|---------------------9------------------7--6--7--9--7b--6--------9b-----| 
D|-----------------------------------------------------------7------------| 
A|--------------------------------------------------------------7---------- 
E|------------------------------------------------------------------------| 



| /  slide up 
| \  slide down 
| h  hammer-on 
| p  pull-off 
| ~  vibrato 
| +  harmonic 
| x  Mute note  
| b  Bend    
=============================================================================== 

This song is played with Bar Chords.  
The Db/D chord is actually this tabbed: 

E|--------| 
B|--------| 
G|--------| 
D|--7-----| 
A|--4-----| 
E|--------| 
Here are the lyrics and chords. Remember this tab is designed for Bar Chords. However, acoustic interpretation is encouraged. E D D/Db On the road making noise D/Db D E Rocking hard for all the girls and boys E D D/Db We got the groove we got the songs D/Db D E Our kinda music makes you sing along E D D/Db Well jump on up in your chair D/Db D E Everybody throw your hands int he air E D D/Db You're gonna scream until it hurts D/Db D E You know you're gonna get your dollar's worth well
Bb F Crank it up tonight C when you hear us on your radio OH OH... Bb F We'll take you for a ride C anywhere that you want to go OH OH.. Bb F Glad you all could make it out to the big show C, Db, D D , Eb , E One, two, three, four, hey hey here we go E D D/Db A big city or a hick town D/Db D E Soon or later we'll be coming around E D D/Db We like to party with the rowdy crowd D/Db D E We like our fiddles and our guitars loud
x2 Bb F Crank it up tonight C when you hear us on the radio OH OH... Bb F We'll take you for a ride C anywhere that you want to go OH OH... Bb F C Glad you all could make it to the Big & Rich show C, Db, D D, Eb, E One, two, three, four, hey hey here we go Bb F C Crank it up tonight when you hear us on your radio
Interpreter's note: I first heard this song in July of 2007 on the CMA Festival Broadcast. They let two youngsters jam with them on stage- it was way cool. The song has a memorable main lead guitar riff so this had to be tabbed. Also, this tab is for Bar Chords. Of Course- its tabbed as simple as possible- and rythym interpretation is required.
share this page

See Also: