E-Chords
Bergamota

Oscilação(Chords)

Bergamota

roll up this ad to continue

Key: F
Tab - Riff 1 

E|------------------------------------------| 
B|------------------------------------------| 
G|------------------------------------------| 
D|------------------------------------------| 
A|------------------------------------------| 
E|-5-5-5-5-5-5-5-5-5-5-5-5------------------| 

E|------------------------------------------| 
B|------------------------------------------| 
G|------------------------------------------| 
D|------------------------------------------| 
A|------------------------------------------| 
E|-8-8-8-8-8-8-8-8-8-8-8-8------------------| 

E|------------------------------------------| 
B|------------------------------------------| 
G|------------------------------------------| 
D|------------------------------------------| 
A|------------------------------------------| 
E|-1-1-1-1-1-1-1-1-1-1-1-1------------------| 

E|------------------------------------------| 
B|------------------------------------------| 
G|------------------------------------------| 
D|------------------------------------------| 
A|------------------------------------------| 
E|-0-0-0-0-0-0-0-0-0-0-0-0------------------| 

Tab - Riff 2 

E|------------------------------------------| 
B|------------------------------------------| 
G|------------------------------------------| 
D|------------------------------------------| 
A|-5----12-13-1----13-12-5------------------| 
E|------------------------------------------| 
Dm Bb Gm Você veio aqui me sufocar C Antes da cortina descer Dm Bb Gm Agora o que vai ser de mim? C Agora eu sei Dm Bb Gm O que eu queria ser já não dá mais C O que eu queria ver já não me traz... Paz Dm Bb Gm Agora eu sei C Porque você fugiu Dm Bb Gm E se um dia você me ligar C E se um dia a gente for... Um só Dm Bb Gm E se o inverno acabar C E se eu me derreter... No sol Dm Bb Gm Você veio aqui me despertar C Antes do amanhecer Dm Bb Gm Agora o que vai ser de mim? C Agora eu sei Dm Bb Gm O que eu queria ser já não dá mais C Dm Bb O que eu queria ver já não me traz... Paz Gm C Porque você fugiu ( Dm Bb Gm C ) Dm Bb Gm C E se um dia você me ligar Dm Bb Gm C E se um dia a gente for... Um só Dm Bb Gm C E se o inverno acabar Dm Bb Gm C E se eu me derreter... No sol Dm Bb Gm C O que me destrói é a distância (de você)
share this page

See Also: